Song name
# A B C D E F G H I J K L M N O P Q R S T U V W X Y Z

Joan Jett - Do You Wanna Touch Me Oh Yeah tab

All credits goes to Joan who saved my life! Just dare to hurt her and i will hunt you 
down and make your life miserble...
To all Joan/Runaways fans, You guys Rocks!
// love JettRock


e|-----------------------------------------------------|
b|-----------------------------------------------------|
g|-----------------------------------------------------|
d|--9---14--11--14--11----11-10------------------------|
a|--7---12---9---12---9------9---8---------------------|
e|-----------------------------------------------------|

e|-----------------------------------------------------|
b|-----------------------------------------------------|
g|-----------------------------------------------------|
d|--9---14--11--14--11-----------------11--------------|
a|--7---12---9---12---9-------------------9------------|
e|---------------------------------9--11---------------|

e|-----------------------------------------------------|
b|-----------------------------------------------------|
g|-----------------------------------------------------|
d|-------------11---------------4----6--5--4-----------|
a|---------------9---------------2----4--3--2----------|
e|---9--11------------2---4----------------------------|

e|-----------------------------------------------------|
b|-----------------------------------------------------|
g|-----------------------------------------------------|
d|----------------11-----------------------------------|
a|----11---11---9-five strokes, 3 times----------------|
e|-----9-----9-----------------------------------------|


I know its not the whole song but its a start :)
Tap to rate this tab
 
# A B C D E F G H I J K L M N O P Q R S T U V W X Y Z