Song name
# A B C D E F G H I J K L M N O P Q R S T U V W X Y Z

Joanna Newsom - On A Good Day tab

The other tab here is perfectly correct, I just thought 
I'd submit this version where you can play the melody 
and the chords at the same time. It's not in the same 
key as the original, but it sounds really good and it's fun to play. 


    C     F      G     C           Am    F           Em   F 
e----------------------------------0--------------------------|
B---1--1--1---1--0--1--1----1--3-----------------------0------|
G---0-----2------0-----0--------------2--2--0-----0-------2---|
D---2-----3------0-----2--------------2--3-----2-----2----3---|
A---3-----3------------3-----------0--------------------------|
E----------------3-----------------------------------0--------|

         C     F          Am    F      C     F     G    C
e-------------------------------------------------------------|
B-----------1--1----------------------------------------1-----|
G---0----------2--2--0-------2--2--0------2--0----------0-----|
D------2-------3-------3--2-----3----2----------2--0----2-----|
A--------3----------------0------------3----------------3-----|
E--------------------------------------------1-----3----------|

C       F       G      C 
Hey hey hey the end is near 
     Am       F               Em       F
On a good day you can see the end from here 
      C          F                   Am     F
But I won't turn back now though the way is clear 
       C        F     G   C
I will stay for the remainder 


That's it. 
Tap to rate this tab
# A B C D E F G H I J K L M N O P Q R S T U V W X Y Z