Song name
# A B C D E F G H I J K L M N O P Q R S T U V W X Y Z

Joanna Newsom - Cosmia tab

---9--------------------9------------------/
-----10-------------------10---------------/
--------11------11-----------11------11--*-/
-9---------12-------------------12-------*-/
---------------------10--------------------/
-------------------------------------------/


/---7----------------2------------/---9--------------------------2--/
/-----7----------------3----------/-----10---------------3^2---3----/
/-------7------7---------2-0------/--------9------9----------4------/
/-9-------11-------4-----------4--/-11-------12---------------------/
/---------10-------5--------------/-0--------0----------------------/
/-7-------------------------------/-------------------3--------3----/


---------------------------------7--/------------------10----10/12--9--/
--------7-----------------7-10------/--------7---------0---------------/
----7^9---9---7-------7-9-----------/----7^9---9---7-------------------/
-0----------------9-----------------/-0-----------------------------7--/
----------9-----------------10------/----------7-----------------------/
------------------------------------/----------------------------------/

-----10-7----10-7------10-7-----------/------------------------------------------|
----------10------10--------10-7------/-------7-10--7----------------------------|
-----------------------------------9--/---7-9----------9--7--7--7--7-------------|
--9------------------9---------7------/-9--------------------------0-------------|
-------------10-----------------------/---------10--------10---7-----------------|
--------------------------------------/------------------------------------------|


/---------2-----------------------------2-------2-------2-------0-/
/-------3---3-----------3-------3-------------3-------3-------2---/
/-----2---------2-----4-------4-------2-----2-------2-------2-----/
/---4---------------5-------5-------4-----2-----------------------/
/-5-----------4---2-------0-------5---------------2-------0-------/
/-----------------------------------------------------------------/

-------2----------------2-------0-------2------------------/
-----3-------3----------------2-------3-------3---------3--/
---2-------2----------2-----2-------2-------2-------2------/
--------------------4-----------------------------4---4----/
-2-------0--------5-------0-------2-------------5----------/
------------------------------------------3----------------/


		x 4		    x 4
-----------7-----/-------------------/
---------------7-/------------10--6--/
-------7---------/--------7----------/
---11------------/----10-------------/
-----------------/-------------------/
-7---7---7---7---/--6---6---6---6----/

				  x 2		x 4		   x 4
----6-------tr----------tr------/-----------------/----6--------------/
--------9---8---9---8---6-------/-----------1-----/------------9------/
--------------8-------------8---/-------1-------1-/--------6-------6--/
--------------------------------/-----3-------3---/------8-------8----/
--------------------------------/---3-------------/-------------------/
--6---6---6---6---6---6---6---6-/-1-------1-------/--6-------6--------/



second riff,
3rd riff,
1st riff

end riff:
---9----9----9----9----9----9----9----9---/-------|
---10---10---10---10---10---10---10---10--/-------|
---11---11---11---11---11---11---11---11--/-------|
--------0-------------------0-------------/-------|
---------------------0--------------------/-------|
-7----------------------------------------/-------|
Tap to rate this tab
# A B C D E F G H I J K L M N O P Q R S T U V W X Y Z