Song name
# A B C D E F G H I J K L M N O P Q R S T U V W X Y Z

Joao Bosco - A Nivel De tab

A Nivel De
Joao Bosco

tabbed by Almir Nametak
mokra@starmo.co.uk
September 2013

E--3---0------------2-------------------------1-0--3--10-10-7-7-3-3--2-----0---------------|
B---0---0--3-3-0-----3------3-3-0------0---0--2--0-1--12----8---4----3----0-0------0-0-----|
G----0---0--0--4---2---0---------0----2---2---1-------12----6---2----2---0---0---0-----0-0-|
D--------------0-------2----------2--2---2---------2--------------------5-----5--2-----2---|
A--3---3-------5--2----3---------------------------0---0----7---3---2--4--------3-3--------|
E--------------3-------3-------3----2---2----0---------------------------------------------|


E------------------------------------------------------------------------------------------|
B----------------------0-0-----------------------0-0---------------------------------------|
G--0-0--0--0-0----0--0-----0-0-0-0--0-0---0-0--0----0-0-0-0--0--0-0----0-------------------|
D--1-0--2--2-2---4---2---------1-0--2-2---4-4--2----2---1-0--2--2-2---4--------------------|
A-------3--3-3--5---3-3-------------3-3---5-5-3-3------------3--3-3--5---------------------|
E--1-0-5--5----7---------------1-0-5-5-5-7-7-7----------1-0-5--5----7----------------------|


E---------------------7--------------------------------------------------------------------|
B----8----9---8--8--8-5----0-0-------------------------------------------------------------|
G----8----8---7--6--5-5-4-0----0-0-0-0----0----0-------------------------------------------|
D----7----6---5--5--5-5-3-2--------1-0---2----4--------------------------------------------|
A-------------7--7--7-5-4-3------------3----5----------------------------------------------|
E---8----7---0---0--0--------------1-0-5----7----------------------------------------------|
Tap to rate this tab
# A B C D E F G H I J K L M N O P Q R S T U V W X Y Z