Song name
# A B C D E F G H I J K L M N O P Q R S T U V W X Y Z

Joao Gilberto - Besame Mucho tab

Joao Gilberto & Caetano Veloso - Besame mucho
by aldo alain

|-----------------------------------------|
|-----------------------------------------|
|-5-5---5-x-5-5---5-x-5-5---5-x-5-5---5---|
|-5-5---5-x-5-5---5-x-5-5---5-x-5-5---5---|
|-7-7---7-x-7-7---7-x-7-7---7-x-7-7---7---|
|-5---5-----5---5-----5---5-----5---5-----|

|-----------------------------------------------------5----------|
|----------------------3-3---3------------3-------6---6---x------|
|-5-5---5-x-5-5----5-x-2-2---2-x-6-6---6--2---6---7---7---x------|
|-5-5---5-x-5-5----5-x-3-3---3-x-5-5---5--3---5---7-----6-x------|
|-7-7---7-x-7-7----7-x-5---5---x-7-7---7----0-7-----5-----x------|
|-5---5-----5----5---------------5---5----------5----------------|

|-7-7---7-x-7-7---7-x--------------------------------------------|
|-5-5---5-x-5-5---5-x-8-8-----------------3-----3---3-------3----|
|-5-5---5-x-5-5---5-x-7-7---7--6---6---6----2-----2---1-1--------|
|---------------------8-8---8--5---5---5-------------------------|
|---------------------7---7--------------------------------------|
|-5---5-----5---5----------------5---5----2---2-------1---1------|

|-----------------------------------------|
|-1---------------------------------------|
|-0----3-----2-2---2--2-2---2-1---1---1---|
|-2----2-----1-1---1--0-0---0-0---0---0---|
|---0-------------------------------------|
|--------3---2---2----1---1-----0---0-----|


|--------------------------------3-3---3---------------5--------|
|----------------------3-3---3---2-2---2---3-------6---6-x------|
|-5-5---5-x-5-5----5-x-2-2---2-x-3-3---3---2---6---7---7-x------|
|-5-5---5-x-5-5----5-x-3-3---3-x-2---------3---5---7-6---x------|
|-7-7---7-x-7-7----7-x-5---5---x-----0---5-----7-5-------x------|
|-5---5-----5----5---------------------------5------------------|

|---------------------------------------------------------------|
|-5-5---5-x-5-5---5-x-8-8---8--6-6---6---3---3---3--3--3---3----|
|-5-5---5-x-5-5---5-x-7-7---7--6-6---6---2---2---3--1--1---1----|
|-5-5---5-x-5-5---5-x-8-8---8--5-5---5---4---4---4--3--3---3----|
|---------------------7---7-------------------------------------|
|-5---5-----5---5--------------5---5------2----2-----1---1------|

|-3---------------------------------------|
|-1---------------------------------------|
|-0----3-----2----1-----5---5--5--5-5---5-|
|-2----2-----1----0-----5---5--5--5-5---5-|
|---0-------------------------------------|
|--------3-----2-----1---5---5----5---5---|

|-------------------------3-3---3-----------------------------------|
|-6---3---8---5----3------1-1---1----6---3------------0----------0-1|
|-5---2---5---5------2-1--0-0---0------5-4--3---2---2---2---2---1---|
|-7---3---7---5--------0-----------------3--2-2-1---1---1---1--0----|
|-5-------0---7---2----2--0---0----5--------3-----------------------|
|-----3----------------------------------3------1--2------2---0----0|

|----------------------------------------------------------------------|
|-------------------------------------------------------3--3-----------|
|---5---5---5---5-----5---5---5---5----2---2---2---2----0--0---3-3-----|
|---5---5---5---5-----5---5---5---5----0---0---0---0-----------5-5-----|
|---7---7---7---7-----7---7---7---7------------------------------------|
|-5-------5---5-----5-------5---5----1-------1---1----0------5---------|

|-------------------------------------------------------------------|
|---5--5----------6--6---6-0--0-0---0---0-0--0-0---0---0------------|
|---5--5---6--6---5--5---7-0--0-0---0---0-0--0-0---0---0------------|
|----------5--5--------6---2--2-2---2---2-2--2-2---2---2------------|
|-5-------------5----------3--------------3-------------------------|
|--------5-----------------3------3---3---3------3---3--------------|

|-------------------------------------------------------------------|
|---7--7---7---7----6---6---6---6---3--3---3---3----3--3---3---3----|
|---6--6---6---6----6---6---6---6---2--2---2---2----1--1---1---1----|
|---7--7---7---7----5---5---5---5---4--4---4---4----3--3---3---3----|
|-6------6---6------------------------------------------------------|
|-----------------5-------5---5---2------2---2----1------1---1------|

|-------------------------------------------------------------------|
|---1--1--------------------1-----7--7---7---7---6--6---6---6-------|
|---0--0----3--3---2--2---1---1---6--6---6---6---6--6---6---6-------|
|---2--2----2--2---1--1---0---0---7--7---7---7---5--5---5---5-------|
|-0-----------------------------6------6---6------------------------|
|---------3------2------1----------------------5------5---5---------|

|--------------------------------------0-------------7------7-------|
|---3--3---3---3---3--3---3---3------1---1---------8---8----8-------|
|---2--2---2---2---1--1---1---1----0-------------5----------5-------|
|---4--4---4---4---3--3---3---3-----------------------------5-------|
|--------------------------------0---------0---7------------7-------|
|-2------2---2---1------1---1----------------5--------------5-------|
Tap to rate this tab
# A B C D E F G H I J K L M N O P Q R S T U V W X Y Z