Song name
# A B C D E F G H I J K L M N O P Q R S T U V W X Y Z

Joao So E Abandonados - Meu Bem tab

Joao So e Abandonados  -  Meu Bem

Intro

|-5-----5-----4-----4---4------|--5-----5-----4-----4---4------|
|------3---3-------3---3---3---|-------3---3-------3---3---3---|
|-4---4---4---4---4---4---4-4--|--4---4---4---4---4---4---4-4--|
|------------------------------|-------------------------------|
|------------------------------|-------------------------------|
|------------------------------|-------------------------------|


|-3-----3-----2-----2---2------|
|------1---1-------1---1---1---|
|-2---2---2---2---2---2---2-2--|
|------------------------------|
|------------------------------|
|------------------------------|



|------------2---4---2-----2---4----4h5----------|
|--0-0-2--3-------------3------------------------|
|------------------------------------------------|
|------------------------------------------------|
|------------------------------------------------|
|------------------------------------------------|


Website: http://joaoso.com/
Tap to rate this tab
# A B C D E F G H I J K L M N O P Q R S T U V W X Y Z