Song name
# A B C D E F G H I J K L M N O P Q R S T U V W X Y Z

Joaquin Sabina - 19 Dias Y 500 Noches tab

Help us improve GuitareTab! Take a short survey!
-=-=-=-=-=-=-=-=-=-=-=-=-=-=-=-=-=-=-=
Joaqun Sabina & Ca.
19 Das Y 500 Noches
Nos Sobran Los Motivos(2001)
Acstico
-=-=-=-=-=-=-=-=-=-=-=-=-=-=-=-=-=-=-=

Intro:

E|-|--12-12-12-10--8----10-10/12-10--8-8/10/8h7--|-------------------|-|
B|-|---------------------------------------------|---9---10--11--12--|-|
G|-|---------------------------------------------|-------------------|-|
D|-|---------------------------------------------|--9----11--12--13--|-|
A|-|---------------------------------------------|-------------------|-|
e|-|---------------------------------------------|-------------------|-|

E|-|--------------------------------|-----------------------|-|
B|-|----7-------7--9--10--9--7--5---|-----------------------|-|
G|-|---8----------------------------|-----------------------|-|
D|-|--7---------7--9--11--9--7--6---|--6-7-8-9--9-11-12-13--|-|
A|-|--------------------------------|-----------------------|-|
e|-|--------------------------------|-----------------------|-|

                E                         C#dim
Lo nuestro dur,   lo que duran dos peces de hielo
                  F#m                 B7
en un gisqui on the rocks, en vez de fingir,
       F#m                                    E
O, estrellarme una copa de celos, le dio por rer.

                    E7
De pronto me vi, como un perro de nadie,
                              A
Ladrando, a las puertas del cielo.

  Am                      E
Me dej un neceser con agravios,
                 F#m   B7
la miel en los labios
                       E
y escarcha en el pelo.

Las dos guitarras:

E|-|--------------------------|-|
B|-|--9-10-11-12--12-14-15-16-|-|
G|-|--------------------------|-|
D|-|--------------------------|-|
A|-|--------------------------|-|
e|-|--------------------------|-|

E|-|--------------------------|-|
B|-|--------------------------|-|
G|-|--------------------------|-|
D|-|--6-7--8--9---9--11-12-13-|-|
A|-|--------------------------|-|
e|-|--------------------------|-|

             E                         C#dim
Tenan razn, mis amantes en eso de que, antes,
            F#m            B7
el malo era yo, con una excepcin:
        F#m                            E
Esta vez, yo quera quererla querer y ella no.

                E7
As que se fue, me dej el corazn
                      A
en los huesos y yo de rodillas.
  Am                           E
Desde el taxi, y, haciendo un exceso,
              F#m     B7
me tir dos besos...
                E
uno por mejilla.

     E7
Y regres
               F#m
a la maldicin 
                  B7
del cajn sin su ropa,
           F#m
a la perdicin
                  E
de los bares de copas,
          E7
a las cenicientas
             A
de saldo y esquina,
             Am
y, por esas ventas
            E
del fino Laina,
              F#m
pagando las cuentas
            B7
de gente sin alma
             F#m
que pierde la calma
            E
con la cocana,
      E7
volvindome loco,
   F#m
derrochando
               B7
la bolsa y la vida
              F#m
la fu, poco a poco,
                   E
dando por perdida.

Y eso que yo,
paro no agobiar con
flores a Mara,
para no asediarla
con mi antologa
de sbanas fras
y alcobas vacas,
para no comprarla
con bisutera,
ni ser el fantoche 
que va, en romera,
con la cofrada
del Santo Reproche,
tanto la quera,
que, tard, en aprender
a olvidarla, diecinueve das
y quinientas noches.

Dijo hola y adis,
y, el portazo, son
como un signo de interrogacin,
sospecho que, as,
se vengaba, a travs del olvido,
Cupido de mi.
No pido perdn,
para qu? si me va a perdonar
porque ya no le importa...
siempre tuvo la frente muy alta,
la lengua muy larga
y la falda muy corta.
Me abandon,
como se abandonan
los zapatos viejos,
destroz el cristal
de mis gafas de lejos,
sac del espejo
su vivo retrato,
y, fui, tan torero,
por los callejones
del juego y el vino,
que, ayer, el portero,
me ech del casino
de Torrelodones.
Qu pena tan grande,
negara el Santo Sacramento,
en el mismo momento
que usted me lo mande.
Y eso que yo,
paro no agobiar con
flores a Mara,
para no asediarla
con mi antologa
de sbanas fras
y alcobas vacas,
para no comprarla
con bisutera,
ni ser el fantoche 
que va, en romera,
con la cofrada
del Santo Reproche,
tanto la quera,
que, tard, en aprender 
a olvidarla, diecinueve das
y quinientas noches.
Y regres...etc.

Las dos guitarras:

E|-|--------------------------|-|
B|-|--------------------------|-|
G|-|--------------------------|-|
D|-|--6-7--8--9---9--11-12-13-|-|
A|-|--------------------------|-|
e|-|--------------------------|-|
              B7            E
E|-|----------2-------------0-|-|
B|-|----------4-------------0-|-|
G|-|----------2-------------1-|-|
D|-|----------4-------------2-|-|
A|-|----------2-------------2-|-|
e|-|------------------------0-|-|

Acordes:
 
   E     F#m    B7    A    E7 C#dim  Am
E|--0--|--2--|--2--|--0--|-0-|--0--|--0--|
B|--0--|--2--|--4--|--2--|-3-|--2--|--1--|
G|--1--|--2--|--2--|--2--|-1-|--3--|--2--|
D|--2--|--4--|--4--|--2--|-2-|--2--|--2--|
A|--2--|--4--|--2--|--0--|-2-|--X--|--0--|
e|--0--|--2--|--X--|--X--|-0-|--X--|--X--|
Related for 19 Dias Y 500 Noches tab