Song name
# A B C D E F G H I J K L M N O P Q R S T U V W X Y Z

Joaquin Sabina - Bruja tab

Intro y base de la canción
e:  ---------1------------2----------------------------------------1--|
B: -------0------------3----------------------------------------0-----|
G: ----0------------2----------------0------------0----------0--------|
D:--------------0----------------2------------0-----------------------|
A:----------------------------3------------2-----------0--------------|
E: -3------------------------------------------------------3----------|
     G           D               C              B/G          Am       G

G           D              C   B/G       Am      SOL
Bruja si aterrizas con tu escoba un dia en mi balcón
            D      C  B/G     Am      G
ve con cuidado yo disparo siempre al corazón.
           D      C  B/G     Am      G
En tus redes no me atraparás como a un ladrón
           D      C  B/G     Am      G
bruja, aunque vengas disfrazada de Marilin Monroe.

Estribillo:
  F               C                G
Piensatelo bien antes de poner tu pie en mi balcón
  F              C                   D
no sea que tu escoba me barra la alcoba y me haga de bastón.
F              C               G
Que van a decir todos los que a ti bruja te llaman
 F                 C               D
si saben que lloras, besas, te enamoras y me haces la cama.

No había debajo del disfraz que te ponias tu
mas que una ninia a la espera de algun principe azul.
Ibas para reina pero un hechicero te dejó
así convertida en una pobre bruja del montón.

Estribillo.

Solo:
e: -7-5------------X-7-5------------X--------------7-10-7---X-|
B: -----8-5-8/10---X------8-5-8/5---X-----8-10-8----------8-X-|
G: ----------------X----------------X-7-9-------------------X-|
D: ----------------X----------------X-----------------------X-|
A: ----------------X----------------X-----------------------X-|
E: ----------------X----------------X-----------------------X-|

e: --------------X------------------X-12-15-12---12-----7---X-|
B: --------------X------8-10-12/10--X---------13----13----8-X-|
G: -7-9-7-9-7----X-7-9--------------X-----------------------X-|
D: --------------X------------------X-----------------------X-|
A: --------------X------------------X-----------------------X-|
E: --------------X------------------X-----------------------X-|

e: ----------------X------------------X-------10-------12-10---------X-|
B: -------8-10/12--X-----8-10-12/10---X-8-10-----10--8-------12-10-8-X-|
G: -7-9------------X-7-9--------------X------------------------------X-|
D: ----------------X------------------X------------------------------X-|
A: ----------------X------------------X------------------------------X-|
E: ----------------X------------------X------------------------------X-|

e: -------------X--------------X----------------------------------X-|
B: -------------X--------------X-----8-----8----8-----------------X-|
G: -9-7---7-9---X-9-7--7-9-7---X-7h9---7h9---7h9---12-10-8------8-X-|
D: ------9------X-----7--------X---------------------------9--7---X-|
A: -------------X--------------X----------------------------------X-|
E: -------------X--------------X----------------------------------X-|

Estribillo
Tap to rate this tab
 
# A B C D E F G H I J K L M N O P Q R S T U V W X Y Z