Guitaretab - guitar tabs
Song name
# A B C D E F G H I J K L M N O P Q R S T U V W X Y Z

Job For A Cowboy - The Divine Falsehood tab

-------------------------------------------------------------------------------
            The Divine Falsehood - Job For A Cowboy
-------------------------------------------------------------------------------
Tabbed by: escalade
Email: keganjrode@yahoo.com
Tuning: Drop A#
This is (hopefully) the right way to play the Divine Falsehood. Have fun and keep it \m/etal
***Update: 9/13/08
Just some minor changes***

|----------------------------------------------------------------------------------|
|----------------------------------------------------------------------------------|
|-----10--9---7---7-9-7--3---5-3-2--------------10--9---7-10-9-7-3---5-3-2---------|
|-0------------------------------------4b---0----------------------------------4b--|
|(0)--8---7---5---5-7-5--1---3-1-0---------(0)--8---7---5--8-7-5-1---3-1-0---------|
|-0----------------------------------0-4b---0--------------------------------0-4b--|
                                     .                                       .

|-----------------------------------------------------------------|
|-----------------------------------------------------------------|
|-----15-14-15---14-12-14---15-17-15-17-15------------------------|
|-0--------------------------------------------4------4--1------1-|
|(0)--13-12-13---12-10-12---13-15-13-15-13------------------------|
|-0------------------------------------------0-4--0-4-------4-0---|
                                            .    . .       . .

|------------------------------------------------------------|
|------------------------------------------------------------|
|-----15-14-15---14-12-14---3-5-3-5-3------------------------|
|-0---------------------------------------4------4--1------1-|
|(0)--13-12-13---12-10-12---1-3-1-3-1------------------------|
|-0-------------------------------------0-4--4-0-------0-4---|
                                       .    . .       . .

|-------------------------------------------------------------------|
|-------------------------------------------------------------------|
|8-8-8-8-8-8-7-7-8-12-12-121111-8-8-7-7-7-7-7-7-7-7-7-5-5-5-5-5-5-5-|
|-------------------------------------------------------------------|
|6-6-6-6-6-6-5-5-6-10-10-10-9-9-6-6-5-5-5-5-5-5-5-5-5-3-3-3-3-3-3-3-|
|-------------------------------------------------------------------|

|-------------------------------------------------------------------------------------|
|-------------------------------------------------------------------------------------|
|8-8-8-8-8-8-7-7-8-12-12-121111-14-14-15-15-15-14-14-14-12-12-14-14-14-14-14-14-14-14-|
|-------------------------------------------------------------------------------------|X2
|6-6-6-6-6-6-5-5-6-10-10-10-9-9-12-12-13-13-13-12-12-12-10-10-12-12-12-12-12-12-12-12-|
|-------------------------------------------------------------------------------------|

|--------------------------------------|
|--------------------------------------|
|-----15-14-15---14-12-14---3-5-3-5-3--|
|-0------------------------------------| x2
|(0)--13-12-13---12-10-12---1-3-1-3-1--|
|-0------------------------------------|
[ Tab from: http://www.guitaretab.com/j/job-for-a-cowboy/104433.html ]
|----------------------------------------------------------------|
|----------------------------------------------------------------|
|----------------------------------------------------------------|
|----------------------------------------------------------------| x4
|----------------------------1-1-------1-1-----------------------|
|1-1-1-1-1-1-4-4-3-3-3-3-1-1-----0-0-0-----0-0-0-0-3-3-3-4-4-3-3-|
                                 . . .     . . . . 

|------------------------------------------------------------------------------------|
|------------------------------------------------------------------------------------|
|------------15-14-15-15-15-15-15-15-14-12-14-14-14-14-14-14-14-14-14-14-14-14-14-14-|
|------------------------------------------------------------------------------------|
|------------13-12-13-13-13-13-13-13-12-10-12-12-12-12-12-12-12-12-12-12-12-12-12-12-|
|0-0-0-0-0-0-------------------------------------------------------------------------|
 . . . . . . 

|-----------------|
|-----------------|
|3-5-3-5-3--------|
|------------1-4b-| x2
|1-3-1-3-1--------|
|------------1-4b-|
             .

|-------------------------------------------------------------------|
|-------------------------------------------------------------------|
|8-8-8-8-8-8-7-7-8-12-12-121111-8-8-7-7-7-7-7-7-7-7-7-5-5-5-5-5-5-5-|
|-------------------------------------------------------------------|
|6-6-6-6-6-6-5-5-6-10-10-10-9-9-6-6-5-5-5-5-5-5-5-5-5-3-3-3-3-3-3-3-|
|-------------------------------------------------------------------|

|-------------------------------------------------------------------------------------|
|-------------------------------------------------------------------------------------|
|8-8-8-8-8-8-7-7-8-12-12-121111-14-14-15-15-15-14-14-14-12-12-14-14-14-14-14-14-14-14-|
|-------------------------------------------------------------------------------------|x2
|6-6-6-6-6-6-5-5-6-10-10-10-9-9-12-12-13-13-13-12-12-12-10-10-12-12-12-12-12-12-12-12-|
|-------------------------------------------------------------------------------------|

|----------------------------------------------------------------|
|----------------------------------------------------------------|
|----------------------------------------------------------------|
|----------------------------------------------------------------| x4
|----------------------------------------------------------------|
|1-1-1-1-1-1-4-4-3-3-3-3-1-1-3-3-0-0-0-0-0-0-0-0-0-0-0-0-0-0-0-0-|
(on 4th time, lightly un-palm mute the last about 8 opens)
 . . . . . . . . . . . . . . . . . . . . . . . . . . . . . . . . 

|-------------------------------------------------------------------|
|-------------------------------------------------------------------|
|8-8-8-8-8-8-7-7-8-12-12-121111-8-8-7-7-7-7-7-7-7-7-7-5-5-5-5-5-5-5-|
|-------------------------------------------------------------------|
|6-6-6-6-6-6-5-5-6-10-10-10-9-9-6-6-5-5-5-5-5-5-5-5-5-3-3-3-3-3-3-3-|
|-------------------------------------------------------------------|

|-------------------------------------------------------------------------------------|
|-------------------------------------------------------------------------------------|
|8-8-8-8-8-8-7-7-8-12-12-121111-14-14-15-15-15-14-14-14-12-12-14-14-14-14-14-14-14-14-|
|-------------------------------------------------------------------------------------|X4
|6-6-6-6-6-6-5-5-6-10-10-10-9-9-12-12-13-13-13-12-12-12-10-10-12-12-12-12-12-12-12-12-|
|-------------------------------------------------------------------------------------|

| /  slide up
| \  slide down
| h  hammer-on
| p  pull-off
| ~  vibrato
| +  harmonic
| x  Mute note
| .  Palm mute
===============================================================================
Related for The Divine Falsehood tab
Advertisement will be closed in 10 seconds