Song name
# A B C D E F G H I J K L M N O P Q R S T U V W X Y Z

Job For A Cowboy - Embedded tab

this is basically the same tab as IwantENGL's, but my version
the tuning is drop A#

feel free to comment and correct.
this is my first tab, for what its worth.

***make your own tabs so we eventually have the song, rather than wait years for someone 
do it for us

        Time: 00:55-1:06
C |-------------------------------------------------------------------------|
G |-------------------------------------------------------------------------|
D#|-/15--14---14-15--7-8--8/10--7----/15--14---14-15--7-8--8/10-------------|
A#|-------------------------------------------------------------------------|
F |-/13--12---12-13--5-6--6/8---5----/13--12---12-13--5-6--6/8-----7-7-8-8--|
A#|----------------------------------------------------------------0-7-0-8--|
                                                                   pm  pm


       Time: 02:27-02:48
C |-------------------------------------------------------------------------|
G |-------------------------------------------------------------------------|
D#|-/15--14---14-15--7-8--8/10--7----/15--14---14-15--7-8--8/10-------------|
A#|----------------------------------------------------------------*solo*---|
F |-/13--12---12-13--5-6--6/8---5----/13--12---12-13--5-6--6/8--------------|
A#|-------------------------------------------------------------------------|
Tap to rate this tab
# A B C D E F G H I J K L M N O P Q R S T U V W X Y Z