Song name
# A B C D E F G H I J K L M N O P Q R S T U V W X Y Z

Job For A Cowboy - Knee Deep tab

Song: Knee Deep
Artist: Job For A Cowboy
Album: Doom

   Guitar I
D||--------------------------------------------------------|
A||--------------------------------------------------------|
F||--------------------------------------------------------|
C||--------------------------------------------------------|
G||--------3h6--------3h6-------------3h6--------3h6-------|
C||-0003h6-----0003h6-----000000003h6-----0003h6-----00000-|
PM|-xxx--------xxx--------xxxxxxxx--------xxx--------xxxxx-|
 ||
 ||Guitar II
D||--------------------------------------------------------|
A||--------------------------------------------------------|
F||--------------------------------------------------------|
C||--------------------------------------------------------|
G||--------------------------------------------------------|
C||-000----------------------------------------------00000-|
PM|-xxx----------------------------------------------xxxxx-|

   Guitar I
D||--------------------------------------------------------|
A||--------------------------------------------------------|
F||--------------------------------------------------------|
C||--------------------------------------------------------|
G||--------3h6--------3h6-------------3h6--------3h6-------|
C||-0003h6-----0003h6-----000000003h6-----0003h6-----0-----|
PM|-xxx--------xxx--------xxxxxxxx--------xxx--------x-----|
 ||
 ||Guitar II
D||--------------------------------------------------------|
A||--------------------------------------------------------|
F||--------------------------------------------------------|
C||--------------------------------------------------------|
G||--------------------------------------------------------|
C||-000-------------------00000000-------------------0-----|
PM|-xxx-------------------xxxxxxxx-------------------x-----|

   Guitar I
D||--------------------------------------------------------|
A||--------------------------------------------------------|
F||--------------------------------------------------------|
C||--------------------------------------------------------|
G||--------3h6--------3h6-------------3h6--------3h6-------|
C||-0003h6-----0003h6-----000000003h6-----0003h6-----00000-|x2
PM|-xxx--------xxx--------xxxxxxxx--------xxx--------xxxxx-|
 ||
 ||Guitar II
D||--------------------------------------------------------|
A||--------------------------------------------------------|
F||--------------------------------------------------------|
C||--------------------------------------------------------|
G||--------6h9--------6h9-------------6h9--------6h9-------|
C||-0006h9-----0006h9-----000000006h9-----0006h9-----00000-|x2
PM|-xxx--------xxx--------xxxxxxxx--------xxx--------xxxxx-|

   Guitars I, II
D||--------------------------------------------------------------|
A||--------------------------------------------------------------|
F||--------------------------------------------------------------|
C||--------------------------------------------------------------|
G||-------------------------------------------14h15-17h20-17h20--|
C||-00000000-00000000-0000-00000000-000-14h15--------------------|
PM|-xxxxxxxx-xxxxxxxx-xxxx-xxxxxxxx-xxx--------------------------|

   Guitars I, II
D||--------------------------------------------------------------|
A||--------------------------------------------------------------|
F||--------------------------------------------------------------|
C||-------------------------------------------------14h15-14h15--|
G||-------------------------------------------14h15--------------|
C||-00000000-00000000-0000-00000000-000-14h15--------------------|
PM|-xxxxxxxx-xxxxxxxx-xxxx-xxxxxxxx-xxx--------------------------|

   Guitars I, II
D||--------------------------------------------------------------|
A||--------------------------------------------------------------|
F||--------------------------------------------------------------|
C||--------------------------------------------------------------|
G||-------------------------------------------14h15-17h20-17h20--|
C||-00000000-00000000-0000-00000000-000-14h15--------------------|
PM|-xxxxxxxx-xxxxxxxx-xxxx-xxxxxxxx-xxx--------------------------|

   Guitars I, II
D||--------------------------------------------------------------|
A||--------------------------------------------------------------|
F||--------------------------------------------------------------|
C||-------------------------------------------------14h15-14h15--|
G||-------------------------------------------14h15--------------|
C||-00000000-00000000-0000-00000000-000-14h15--------------------|
PM|-xxxxxxxx-xxxxxxxx-xxxx-xxxxxxxx-xxx--------------------------|

   Guitar I
D||--------------------------------------------------------|
A||--------------------------------------------------------|
F||--------------------------------------------------------|
C||--------------------------------------------------------|
G||--------3h6--------3h6-------------3h6--------3h6-------|
C||-0003h6-----0003h6-----000000003h6-----0003h6-----00000-|
PM|-xxx--------xxx--------xxxxxxxx--------xxx--------xxxxx-|
 ||
 ||Guitar II
D||--------------------------------------------------------|
A||--------------------------------------------------------|
F||--------------------------------------------------------|
C||--------------------------------------------------------|
G||--------6h9--------6h9-------------6h9--------6h9-------|
C||-0006h9-----0006h9-----000000006h9-----0006h9-----00000-|
PM|-xxx--------xxx--------xxxxxxxx--------xxx--------xxxxx-|

  Guitar I
D||--------------------------------------------------|
A||--------------------------------------------------|
F||--------------------------------------------------|
C||--------------------------------------------------|
G||--------3h6--------3h6-------------3h6--------3h6-|
C||-0003h6-----0003h6-----000000003h6-----0003h6-----|
PM|-xxx--------xxx--------xxxxxxxx--------xxx--------|
 ||
 ||Guitar II
D||------------------------------------------------------------------|
A||------------------------------------------------------------------|
F||------------------------------------------------------------------|
C||------------------------------------------------------------------|
G||--------6h9--------6h9-------------6h9--------6h9---0--0--0-0-0-0-|
C||-0006h9-----0006h9-----000000006h9-----0006h9-------0--0--0-0-0-0-|
PM|-xxx--------xxx--------xxxxxxxx--------xxx----------x--x--x-x-x-x-|

   Guitar I
D||-----------------------------------------------------|
A||-----------------------------------------------------|
F||-----------------------------------------------------|
C||-----------------------------------------------------|
G||----333---------------------333----------3h6-----3h6-|
C||-000---666333000666999555000---6663333h6-----3h6-----|
PM|-xxx---------xxx---------xxx-------------------------|
 ||
 ||Guitar II
D||-----------------------------------------------------|
A||-----------------------------------------------------|
F||-----------------------------------------------------|
C||-----------------------------------------------------|
G||-------------------------------------X\\\\\\---------|
C||---------------------------------------------X\\\\\\-|

   Guitar I
D||-----------------------------------------------------|
A||-----------------------------------------------------|
F||-----------------------------------------------------|
C||-----------------------------------------------------|
G||----333---------------------333----------3h6-----3h6-|
C||-000---666333000666999555000---6663333h6-----3h6-----|x3
PM|-xxx---------xxx---------xxx-------------------------|
 ||
 ||Guitar II
D||-----------------------------------------------------|
A||-----------------------------------------------------|
F||-----------------------------------------------------|
C||-----------------------------------------------------|
G||----333---------------------333----------6h9-----6h9-|
C||-000---666333000666999555000---6663336h9-----6h9-----|x3
PM|-xxx---------xxx---------xxx-------------------------|

   Guitar I
D||-----------------------------------------------------|
A||-----------------------------------------------------|
F||-----------------------------------------------------|
C||----5-----------------------5------------------------|
G||-00-3--6--3--00-6--9--5--00-3--6--3--------------4*--|
C||-00----6--3--00-6--9--5--00----6--3--0-3-6-2-5-0-----|
PM|-xx----------xx----------xx----------x-x-x-x-x-x-----|
 ||
 ||Guitar II
D||-----------------------------------------------------|
A||-----------------------------------------------------|
F||-----------------------------------------------------|
C||----5-----------------------5--------------------8*--|
G||-00-3--6--3--00-6--9--5--00-3--6--3------------------|
C||-00----6--3--00-6--9--5--00----6--3--0-3-6-2-5-0-----|
PM|-xx----------xx----------xx----------x-x-x-x-x-x-----|

   Guitar I
D||--------------------------------------------------------|
A||--------------------------------------------------------|
F||--------------------------------------------------------|
C||----5-----------------------5---------------------------|
G||-00-3--6--3--00-6--9--5--00-3--6--3-----------------3h6-|
C||-00----6--3--00-6--9--5--00----6--3--0-3-6-2-5-03h6-----|
PM|-xx----------xx----------xx----------x-x-x-x-x-x--------|
 ||
 ||Guitar II
D||--------------------------------------------------------|
A||--------------------------------------------------------|
F||--------------------------------------------------------|
C||----5-----------------------5---------------------------|
G||-00-3--6--3--00-6--9--5--00-3--6--3-----------------6h9-|
C||-00----6--3--00-6--9--5--00----6--3--0-3-6-2-5-06h9-----|
PM|-xx----------xx----------xx----------x-x-x-x-x-x--------|

   Guitar I
D||-----------------------------------------------------|
A||-----------------------------------------------------|
F||-----------------------------------------------------|
C||----5-----------------------5------------------------|
G||-00-3--6--3--00-6--9--5--00-3--6--3--------------4*--|
C||-00----6--3--00-6--9--5--00----6--3--0-3-6-2-5-0-----|
PM|-xx----------xx----------xx----------x-x-x-x-x-x-----|
 ||
 ||Guitar II
D||-----------------------------------------------------|
A||-----------------------------------------------------|
F||-----------------------------------------------------|
C||----5-----------------------5--------------------8*--|
G||-00-3--6--3--00-6--9--5--00-3--6--3------------------|
C||-00----6--3--00-6--9--5--00----6--3--0-3-6-2-5-0-----|
PM|-xx----------xx----------xx----------x-x-x-x-x-x-----|

   Guitar I
D||--------------------------------------------------------|
A||--------------------------------------------------------|
F||--------------------------------------------------------|
C||----5-----------------------5---------------------------|
G||-00-3--6--3--00-6--9--5--00-3--6--3-----------------3h6-|
C||-00----6--3--00-6--9--5--00----6--3--0-3-6-2-5-03h6-----|
PM|-xx----------xx----------xx----------x-x-x-x-x-x--------|
 ||
 ||Guitar II
D||--------------------------------------------------------|
A||--------------------------------------------------------|
F||--------------------------------------------------------|
C||----5-----------------------5---------------------------|
G||-00-3--6--3--00-6--9--5--00-3--6--3-----------------6h9-|
C||-00----6--3--00-6--9--5--00----6--3--0-3-6-2-5-06h9-----|
PM|-xx----------xx----------xx----------x-x-x-x-x-x--------|

   Guitars I, II
D||---------------------------------------------------------------|
A||---------------------------------------------------------------|
F||---------------------------------------------------------------|
C||---------------------------------------------------------------|
G||-----3---3-----3---3-----3-3h6-----3---3-----3---3---------3h6-|
C||-0-0---0---0-0---0---0-0-------0-0---0---0-0---0---0-0-3h6-----|x2
PM|-x-x---x---x-x---x---x-x-------x-x---x---x-x---x---x-x---------|

   Guitar I
D||---------------------------------------------------------------------------------------------|
A||---------------------------------------------------------------------------------------------|
F||---------------------------------------------------------------------------------------------|
C||---------------------------------------------------------------------------------------------|
G||-----6---6-----6---6-----6-6h9-----6---6-----6---6---------6h9-----6---6-----6---6-----6-6h9-|
C||-0-0---0---0-0---0---0-0-------0-0---0---0-0---0---0-0-6h9-----0-0---0---0-0---0---0-0-------|
PM|-x-x---x---x-x---x---x-x-------x-x---x---x-x---x---x-x---------x-x---x---x-x---x---x-x-------|
 ||
 ||Guitar II
D||---------------------------------------------------------------------------------------------|
A||---------------------------------------------------------------------------------------------|
F||---------------------------------------------------------------------------------------------|
C||---------------------------------------------------------------------------------------------|
G||--------------------------9\-------6---6-----6---6---------6h9-----6---6-----6---6-----6-6h9-|
C||--------------------------9\---0-0---0---0-0---0---0-0-6h9-----0-0---0---0-0---0---0-0-------|
PM|-------------------------------x-x---x---x-x---x---x-x---------x-x---x---x-x---x---x-x-------|

   Guitars I, II
D||---------------------------------|
A||---------------------------------|
F||---------------------------------|
C||---------------------------------|
G||---------6h9--------7h10-----6h9-|
C||-0-0-6h9-------7h10------6h9-----|
PM|-x-x-----------------------------|

   Guitar I
D||---------------------------------------------------------------------------------------------|
A||---------------------------------------------------------------------------------------------|
F||---------------------------------------------------------------------------------------------|
C||---------------------------------------------------------------------------------------------|
G||-----6---6-----6---6-----6-6h9-----6---6-----6---6---------6h9-----6---6-----6---6-----6-6h9-|
C||-0-0---0---0-0---0---0-0-------0-0---0---0-0---0---0-0-6h9-----0-0---0---0-0---0---0-0-------|
PM|-x-x---x---x-x---x---x-x-------x-x---x---x-x---x---x-x---------x-x---x---x-x---x---x-x-------|
 ||
 ||Guitar II
D||------------------------------------------------------------------------------------------------|
A||------------------------------------------------------------------------------------------------|
F||------------------------------------------------------------------------------------------------|
C||------------------------------------------------------------------------------------------------|
G||-----9---9-----9---9-----9-9h12-----9---9-----9---9----------9h12-----6---6-----6---6-----6-6h9-|
C||-0-0---0---0-0---0---0-0--------0-0---0---0-0---0---0-0-9h12------0-0---0---0-0---0---0-0-------|
PM|-x-x---x---x-x---x---x-x--------x-x---x---x-x---x---x-x-----------x-x---x---x-x---x---x-x-------|

   Guitar I
D||---------------------------------|
A||---------------------------------|
F||---------------------------------|
C||---------------------------------|
G||---------6h9--------7h10-----6h9-|
C||-0-0-6h9-------7h10------6h9-----|x3
PM|-x-x-----------------------------|
 ||
 ||Guitar II
D||---------------------------------------|
A||---------------------------------------|
F||---------------------------------------|
C||---------------------------------------|
G||----------9h12---------10h13------9h12-|
C||-0-0-9h12--------10h13-------9h12------|x3
PM|-x-x-----------------------------------|

   Guitar I
D||-------------------------------------------|
A||-------------------------------------------|
F||-------------------------------------------|
C||-------------------------------------------|
G||---------6h9------7--------6--------8------|
C||-0-0-6h9-----7h10---10\6h9---9\8h11---11\--|
PM|-x-x---------------------------------------|
 ||
 ||Guitar II
D||-------------------------------------------|
A||-------------------------------------------|
F||-------------------------------------------|
C||-------------------------------------------|
G||----------9h12-----------------------------|
C||-0-0-9h12----------------------------------|
PM|-x-x---------------------------------------|

   Guitars I, II
D||-----------------|
A||-----------------|
F||-----------------|
C||-----------------|
G||-00-00-0---------|
C||-00-00-0---------|
PM|-xx-xx-x---------|

   Guitar I
D||-------------------------------------------|
A||-------------------------------------------|
F||-------------------------------------------|
C||-------------------------------------------|
G||-00-00-0-00-00-0-00-00-0------7--------6h9-|
C||-00-00-0-00-00-0-00-00-0-7h10---10\6h9-----|x3
PM|-xx-xx-x-xx-xx-x-xx-xx-x-------------------|
 ||
 ||Guitar II
D||---------------------------------|
A||---------------------------------|
F||---------------------------------|
C||---------------------------------|
G||-00-00-0-00-00-0-00-00-0-00-00-0-|
C||-00-00-0-00-00-0-00-00-0-00-00-0-|x3
PM|-xx-xx-x-xx-xx-x-xx-xx-x-xx-xx-x-|

   Guitars I, II
D||-------------------------|
A||-------------------------|
F||-------------------------|
C||-------------------------|
G||-00-00-0---------00-00-0-|
C||-00-00-0---------00-00-0-|
PM|-xx-xx-x---------xx-xx-x-|

   Guitar I
D||-------------------------------|
A||-------------------------------|
F||-------------------------------|
C||-------------------------------|
G||------7--------6--------8------|
C||-7h10---10\6h9---9\8h11---11\--|
 ||
 ||Guitar II
D||-------------------------------------|
A||-------------------------------------|
F||-------------------------------------|
C||-------------------------------------|
G||-------10---------9----------11------|
C||-10h13----13\9h12---12\11h14----14\--|

   Guitars I, II
D||--------------------------------------------------------------------------------------------|
A||--------------------------------------------------------------------------------------------|
F||--------------------------------------------------------------------------------------------|
C||--------------------------------------------------------------------------------------------|
G||-00-00-0-00-00-0-00-00-0------7--------6h9-----------------------7--------6h9--------8------|
C||-00-00-0-00-00-0-00-00-0-7h10---10\6h9------00-00-0-00-00-0-7h10---10\6h9-----9\8h11---11\--|
PM|-xx-xx-x-xx-xx-x-xx-xx-x--------------------xx-xx-x-xx-xx-x---------------------------------|

   Guitar I
D||-------------------------------------|
A||-------------------------------------|
F||-------------------------------------|
C||-------------------------------------|
G||-----6-9------7-10-------------------|
C||-6-9-----7-10------------------------|
 ||
 ||Guitar II
D||-------------------------------------|
A||-------------------------------------|
F||-------------------------------------|
C||-------------------------------------|
G||------9-12-------10-13---------------|
C||-9-12------10-13---------------------|

   Guitar I
D||-------------------|
A||-------------------|
F||-------------------|
C||-------------------|
G||-----6-9------7-10-|
C||-6-9-----7-10------|x8
 ||
 ||Guitar II
D||-----------------------|
A||-----------------------|
F||-----------------------|
C||-----------------------|
G||------9-12-------10-13-|
C||-9-12------10-13-------|x8

   Guitar I
D||-------------------|
A||-------------------|
F||-------------------|
C||-------------------|
G||-----6-9------7-10-|
C||-6-9-----7-10------|x8
 ||
 ||Guitar II
D||----------------------------|
A||----------------------------|
F||----------------------------|
C||----------------------------|
G||-0--0-0-0--0-0-0--0-0-0--0--|
C||-0--0-0-0--0-0-0--0-0-0--0--|x4
PM|-x--x-x-x--x-x-x--x-x-x--x--|

   Guitars I, II
D||----------------------------|
A||----------------------------|
F||----------------------------|
C||----------------------------|
G||-0--0-0-0--0-0-0--0-0-0--0--|
C||-0--0-0-0--0-0-0--0-0-0--0--|
PM|-x--x-x-x--x-x-x--x-x-x--x--|

   Guitars I, II
D||-----------------------------------------------------------|
A||-----------------------------------------------------------|
F||-----------------------------------------------------------|
C||-----------------------------------------------------------|
G||-0--0000000000-------------0--0000000000------7--------6h9-|
C||-0--0000000000333666999555-0--0000000000-7h10---10\6h9-----|
PM|-x--xxxxxxxxxx-------------x--xxxxxxxxxx-------------------|

   Guitar I
D||----------------------------------------------------------------------|
A||----------------------------------------------------------------------|
F||----------------------------------------------------------------------|
C||----------------------------------------------------------------------|
G||-----------77-----------------77---------------66-------------66------|
C||-7770771010--10107707770771010--101077066606699--9966066606699--99660-|
PM|-xxx-xx----------xx-xxx-xx----------xx-xxx-xx------xx-xxx-xx------xx--|

   Guitar I
D||----------------------------------------------------------------------|
A||----------------------------------------------------------------------|
F||----------------------------------------------------------------------|
C||----------------------------------------------------------------------|
G||-----------77-----------------77---------------66-------------66------|
C||-7770771010--10107707770771010--101077066606699--9966066606699--99660-|x3
PM|-xxx-xx----------xx-xxx-xx----------xx-xxx-xx------xx-xxx-xx------xx--|
 ||
 ||Guitar II
D||----------------------------------------------------------------------|
A||----------------------------------------------------------------------|
F||----------------------------------------------------------------------|
C||----------------------------------------------------------------------|
G||----------------------------------------------------------------------|
C||-77777777777777777777777777777777777777666666666633333333336666666666-|x3

   Guitar I
D||----------------------------------------------------------------------|
A||----------------------------------------------------------------------|
F||----------------------------------------------------------------------|
C||----------------------------------------------------------------------|
G||-----------77-----------------77---------------66-------------66------|
C||-7770771010--10107707770771010--101077066606699--9966066606699--99660-|
PM|-xxx-xx----------xx-xxx-xx----------xx-xxx-xx------xx-xxx-xx------xx--|
 ||
 ||Guitar II
D||----------------------------------------------------------------------|
A||----------------------------------------------------------------------|
F||----------------------------------------------------------------------|
C||----------------------------------------------------------------------|
G||----------------------------------------------------------------------|
C||-77777777777777777777777777777777777777666666666633333333333333333333-|

   Guitar I
D||----------------------------------------------------------------------|
A||----------------------------------------------------------------------|
F||----------------------------------------------------------------------|
C||----------------------------------------------------------------------|
G||-----------77-----------------77---------------66-------------66------|
C||-7770771010--10107707770771010--101077066606699--9966066606699--99660-|
PM|-xxx-xx----------xx-xxx-xx----------xx-xxx-xx------xx-xxx-xx------xx--|
 ||
 ||Guitar II
D||----------------------------------------------------------------------|
A||----------------------------------------------------------------------|
F||----------------------------------------------------------------------|
C||----------------------------------------------------------------------|
G||----------------------------------------------------------------------|
C||-10101010101010101010101010101010101010999999999999999999999999999999-|

   Guitars I, II
D||-----------------------------------------------|
A||-----------------------------------------------|
F||-----------------------------------------------|
C||-----------------------------------------------|
G||------7------7------7----------6-----6-----6---|
C||-7h10---7h10---7h10---10---6h9---6h9---6h9---9-|x4

   Guitars I, II
D||----------------------------------------------------------------------|
A||----------------------------------------------------------------------|
F||----------------------------------------------------------------------|
C||----------------------------------------------------------------------|
G||-00000000-0--0-00000000-0--0-00000000-0--0-00000000------7h10-----6h9-|
C||-00000000-0--0-00000000-0--0-00000000-0--0-00000000-7h10------6h9-----|
PM|-xxxxxxxx-x--x-xxxxxxxx-x--x-xxxxxxxx-x--x-xxxxxxxx-------------------|

   Guitars I, II
D||------------------------------------------|
A||------------------------------------------|
F||------------------------------------------|
C||------------------------------------------|
G||-00000000-0--0-00000000------7h10-----6h9-|
C||-00000000-0--0-00000000-7h10------6h9-----|
PM|-xxxxxxxx-x--x-xxxxxxxx-------------------|

   Guitars I, II
D||---------------|
A||---------------|
F||---------------|
C||---------------|
G||-00000000-0--0-|
C||-00000000-0--0-|
PM|-xxxxxxxx-x--x-|
Tap to rate this tab
 
# A B C D E F G H I J K L M N O P Q R S T U V W X Y Z