Song name
# A B C D E F G H I J K L M N O P Q R S T U V W X Y Z

Job For A Cowboy - Unfurling A Darkened Gospel tab

-----------------------------------------------------------------------------
		Unfurling a Darkened Gospel Solo - Job for a Cowboy
-----------------------------------------------------------------------------
Tabbed by: Malacoda
Email:endoftheline9@sbcglobal.net

NOTE: MAKE SURE TO PAY ATTENTION TO THE VIBRATO NOTES, ESPECIALLY IN THE FIRST TWO
BARS OF THE TAB. THEY DO MAKE A DIFFERENCE.

Here's a video of me playing the solo, for those who want to see how.
http://www.youtube.com/watch?v=QDL-QAY9I-I

Keep in mind this tab is how I play it and may not be 100% accurate, but I am
pretty sure that almost all of it except for the last lick before the last sweep is accurate.

Tuning: D standard (High to Low: DAFCGD)

D|---------------------------------------------------------------------------|
A|---------------------------------------------------------------------------|
F|---------------------~-~---~-~---~-~---~-~---~-~---~-----------------------|
C|-------------------5-9-8---9-5---9-8---9-5---9-8---9-5-----------5---------|
G|-------7*----6-7-9-------------------------------------9-7-6-7-9---9-7-6---|
D|---------------------------------------------------------------------------|

D|-----------------------~~-~~---~~-~---~~-~~---~~-~---~~-~~-----------------|
A|---------------------8-12-11---12-8---12-11---12-8---12-11-12--------------|
F|-----8b9------8-9-11-------------------------------------------------------|
C|---------------------------------------------------------------------------|
G|---------------------------------------------------------------------------|
D|---------------------------------------------------------------------------|

D|--12-11-10-9---------------------------------------------------------------|
A|------------13-12-11-10----------------------------------------------------|
F|-----------------------13-12-11-10-9*--------------------------------------|
C|---------------------------------------------------------------------------|
G|---------------------------------------------------------------------------|
D|---------------------------------------------------------------------------|

D|----15p12------12h17-17-----12p7-------7h12p7-------7h12p7-------7-8-7-----|
A|---------13--13------------------8-7-8--------8---8--------8-7-8-----------|
F|-----------12-----------------------------------9--------------------------|
C|---------------------------------------------------------------------------|
G|---------------------------------------------------------------------------|
D|---------------------------------------------------------------------------|

D|------------------------15-------------13----------------------------------|
A|---10-8-7---~------15h16--14--15-14-15----15-14-15-14-15-------------------|
F|----------9-8--------------------------------------------------------------|
C|---------------------------------------------------------------------------|
G|---------------------------------------------------------------------------|
D|---------------------------------------------------------------------------|

D|-----15p12----------12h17p12----------12-----------------------------------|
A|-----------13----13----------13----13--------------------------------------|
F|--------------12----------------12-----------------------------------------|
C|---------------------------------------------------------------------------|
G|---------------------------------------------------------------------------|
D|---------------------------------------------------------------------------|

The last sweeps may sound weird when played slowly, but once you get them up
to full speed they are correct (see my video). Please rate and comment.

| /  slide up
| \  slide down
| h  hammer-on
| p  pull-off
| ~  vibrato (look for this ABOVE the notes, not next to them)
| *  artificial/pinch harmonic
| x  Mute note
=============================================================================
Tap to rate this tab
# A B C D E F G H I J K L M N O P Q R S T U V W X Y Z