Song name
# A B C D E F G H I J K L M N O P Q R S T U V W X Y Z

Job For A Cowboy - Altered From Catechization tab

D#--------------------------------------------------------------------------|
A#-13/15--12--12/16--13--13h15----------------------------------------------|
F#-------------------------------------------13--12~~ ----------------------|
C#--------------------------------------------------------------------------|
G#--------------------------------------------------------------------------|
D#--------------------------------------------------------------------------|


D#--8p7-4h7p4---------------------------------------------------------------|
A#------------------6h8p6--4h6p4--------------------------------------------|
F#--------------------------------------5h8p5-4h5p4-------------------------|
C#--------------------------------------------------------6~~~--------------|
G#--------------------------------------------------------------------------|
D#--------------------------------------------------------------------------|


D#-----------------------------------------7h8h10(tap)11p8p7 ----------------|
A#-------------------------------6-8-9---------------------------------7/9-8-|
F#----------------------5-7-8------------------------------------------------|
C#------------5-6-9----------------------------------------------------------|
G#-5-6-8---------------------------------------------------------------------|
D#---------------------------------------------------------------------------|
Tap to rate this tab
# A B C D E F G H I J K L M N O P Q R S T U V W X Y Z