Song name
# A B C D E F G H I J K L M N O P Q R S T U V W X Y Z

Job For A Cowboy - Entombment Of A Machine tab

Song-Entombment Of A Machine

Artist-Job For A Cowboy

Album-Doom


|guitar 1&2
|1|-----------------|
|2|-----------------|
|3|-----------------|x4
|4|-----------------|
|5|------------3322-|
|6|114433114433-----|

|guitar 1&2
|1|-----------------|
|2|-----------------|
|3|-----------------|x4
|4|-----------------|
|5|--------------2*-|
|6|0-4-4-3-4-3-4----|
   .                
|guitar 1&2
|1|-------------------------------------------------------------|
|2|-------------------------------------------------------------|
|3|-------------------------------------------------------------|
|4|0---0-4-3-1----0---0-4-3-1-------------------------------0---|
|5|0---0-4-3-1----0---0-4-3-1-------------------------------0---|
|6|0---0-4-3-1----0---0-4-3-1----4-1-3-0-4-1-3-0---4441113330---|
       . . . .        . . . .    . . . . . . . .   .........

|guitar 1&2
|1|---------------------|
|2|---------------------|
|3|---------------------|x4
|4|---------------------|
|5|---------------------|
|6|44444111113333300000-|

|guitar 1
|1|------------------------------------|
|2|------------------------------------|
|3|------------------------------------|
|4|0---0-4-3-1----0---0-4-3-1----------|
|5|0---0-4-3-1----0---0-4-3-1--------4*|
|6|0---0-4-3-1----0---0-4-3-1----000---|
|      . . . .        . . . .    ...
|guitar 2
|1|----------------------------------------|
|2|----------------------------------------|
|3|----------------------------------------|
|4|4~~~1~~~3~~~0~~~-4~~~1~~~3~~~0~~~-------|
|5|4~~~1~~~3~~~0~~~-4~~~1~~~3~~~0~~~-----4*|
|6|4~~~1~~~3~~~0~~~-4~~~1~~~3~~~0~~~-000---|

|guitar 1&2
|1|------------|
|2|------------|
|3|------------|x2
|4|0---0-4-3-1-|
|5|0---0-4-3-1-|
|6|0---0-4-3-1-|
       . . . . 
guitar 1     
|1|------------|
|2|------------|
|3|------------|x2
|4|0---0-4-3-1-|
|5|0---0-4-3-1-|
|6|0---0-4-3-1-|
|      . . . .
|guitar 2
|1|-------------------------------------------------|
|2|-------------------------------------------------|
|3|-------------------------------------------------|
|4|-------------------------------------------------|
|5|----------------------------------------------4*-|
|6|/44444111113333300000-44444111113333300000--000---|
|guitar 1

|1|------------------------------------|
|2|------------------------------------|
|3|------------------------------------|
|4|0---0-4-3-1----0---0-4-3-1----------|
|5|0---0-4-3-1----0---0-4-3-1--------4*|
|6|0---0-4-3-1----0---0-4-3-1----000---|
|      . . . .        . . . .    ...
|guitar 2
|1|------------------------------------------------|
|2|------------------------------------------------|
|3|------------------------------------------------|
|4|------------------------------------------------|
|5|----------------------------------------------4*|
|6|44444111113333300000-44444111113333300000-000---|
                                            ...
|guitar 1&2
|1|--------------------------|
|2|--------------------------|
|3|--------------------------|x4
|4|0-4-3-1---0-4-3-1-000-000-|
|5|0-4-3-1---0-4-3-1-000-000-|
|6|0-4-3-1---0-4-3-1-000-000-|
   . . . .   . . . . ... ...   
|guitar 1&2
|1|----------------------------------------------------------------------------------|
|2|----------------------------------------------------------------------------------|
|3|----------------------------------------------------------------------------------|x2
|4|----------------------------------------------------------------------------------|
|5|---------------55555------------------------------------44444---------------------|
|6|555557777788888-----88888777775555577777-444446666677777-----77777666664444466666-|

|guitar 1
|1|------------------------------------|
|2|------------------------------------|
|3|------------------------------------|
|4|-----0~~------0~~------0~~------0~~-|
|5|-----0~~------0~~------0~~------0~~-|
|6|1^~~~0~~-1^~~~0~~-1^~~~0~~-1^~~~0~~-|
|
|guitar 2
|1|------------------------------------|
|2|------------------------------------|
|3|------------------------------------|
|4|-----0~~------0~~------0~~------0~~-|
|5|-----0~~------0~~------0~~------0~~-|
|6|4^~~~0~~-4^~~~0~~-4^~~~0~~-4^~~~0~~-|

|guitar 1
|1|-----------------------------------------|
|2|-----------------------------------------|
|3|-----------------------------------------|
|4|-----0~~------0~~------0~~---------------|
|5|-----0~~------0~~------0~~---------4---4-|
|6|1^~~~0~~-1^~~~0~~-1^~~~0~~-1^~~~467-467--|
|
|guitar 2
|1|----------------------------|  |---------------------------|
|2|----------------------------|  |---------------------------|
|3|----------------------------|x3|---------------------------|
|4|----------------------------|  |---------------------------|
|5|---5------5------4------4---|  |---5------5------4-----4---|
|6|578-87-578-87-467-76-467-76-|  |578-87-578-87-467---467----|
   ... .. ... .. ... .. ... ..     ... .. ... .. ...   ...
|guitar 1&2
|1|---------------------------|
|2|---------------------------|
|3|---------------------------|x4
|4|---------------------------|
|5|---5------5------4-----4---|
|6|578-87-578-87-467---467----|
   ... .. ... .. ...   ...
|guitar 1&2
|1|-----------------|
|2|-----------------|
|3|-----------------|x2
|4|-----------------|
|5|111111-0000-0000-|
|6|111111-0000-0000-|
   ...... .... ....
|guitar 1
|1|----------------------------------------|
|2|----------------------------------------|
|3|----------------------------------------|
|4|----------------------------------------|
|5|111111-0000-0000-111111-0000-0000-------|
|6|111111-0000-0000-111111-0000-0000-5~/~1-|
|  ...... .... .... ...... .... ....
|guitar 2
|1|------------------------------------------------|
|2|------------------------------------------------|
|3|------------------------------------------------|
|4|------------------------------------------------|
|5|---5------5------4-----4------5------5----------|
|6|578-87-578-87-467---467----578-87-578-87--5~/~1-|
   ... .. ... .. ...   ...    ... .. ... ..
|guitar 1&2
|1|-----------------------------------------------|
|2|-----------------------------------------------|
|3|-----------------------------------------------|x4
|4|-----------------------------------------------|
|5|-----5------6-------------------5------6-------|
|6|000-0--000-0--555888444777-000-0--000-0--5~/1~-|
   ... .  ... .               ... .  ... .
|guitar 1&2
|1|-----------------------|
|2|-----------------------|
|3|-----------------------|
|4|------------------0000-|
|5|5~4h5p4~1h4p1~1h4-0000-|
|6|------------------0000-|
                     ....
|guitar 1
|1|-----------------------|
|2|-----------------------|
|3|-----------------------|
|4|------------------0000-|
|5|5~4h5p4~1h4p1~1h4-0000-|
|6|------------------0000-|
|                    ....
|guitar 2
|1|-----------------|
|2|-----------------|
|3|-----------------|
|4|4~0h4p0~0h4-0000-|
|5|------------0000-|
|6|------------0000-|
               ....
|guitar 1&2
|1|-----------------------|
|2|-----------------------|
|3|-----------------------|x2
|4|-----------------------|
|5|------------------0000-|
|6|5~4h5p4~1h4p1~1h4-0000-|
                     ....
|guitar 1
|1|-------------------------------------------------|
|2|-------------------------------------------------|
|3|-------------------------------------------------|
|4|0-0-1-000-4---0-1-0-4-0----0-0-1-000-4---0-4-3-1-|
|5|0-0-1-000-4---0-1-0-4-0-4*-0-0-1-000-4---0-4-3-1-|
|6|0-0-1-000-4---0-1-0-4-0----0-0-1-000-4---0-4-3-1-|
|  . .   ...     .   .   .    . .   ...     . . . .
|guitar 2
|1|-------------------------------------------------|
|2|-------------------------------------------------|
|3|-------------------------------------------------|
|4|-----------------------------------------0-4-3-1-|
|5|------------------------4*---------------0-4-3-1-|
|6|-----------------------------------------0-4-3-1-|
                                            . . . .
|guitar 1&2                                             End with this on the 3rd time
|1|-------------------------------------------------|  |----------------|
|2|-------------------------------------------------|  |----------------|
|3|-------------------------------------------------|x2|----------------|
|4|0-0-1-000-4---0-1-0-4-0----0-0-1-000-4---0-4-3-1-|  |0-4-3-1-0-4-3-1-|
|5|0-0-1-000-4---0-1-0-4-0-4*-0-0-1-000-4---0-4-3-1-|  |0-4-3-1-0-4-3-1-|
|6|0-0-1-000-4---0-1-0-4-0----0-0-1-000-4---0-4-3-1-|  |0-4-3-1-0-4-3-1-|
|  . .   ...     .   .   .    . .   ...     . . . .     . . . . . . . .

|guitar 1&2
|1|----------------------------------------------------------------------|
|2|----------------------------------------------------------------------|
|3|----------------------------------------------------------------------|Until the end
|4|----------------------------------------------------------------------|
|5|5-4-----5-4-------5-4-----5-4-------5-4-444-5-4-444---5-4-444-5-4-444-|
|6|5-4-888-5-4-888---5-4-888-5-4-888---5-4-----5-4-------5-4-----5-4-----|
   . .     . .       . .     . .       . .     . .       . .     . .



* = pinch harmonic
~ = let the note ring
/ = slide to
. = palm mute
h = hammer on
p = pull off
Tap to rate this tab
 
# A B C D E F G H I J K L M N O P Q R S T U V W X Y Z