Song name
# A B C D E F G H I J K L M N O P Q R S T U V W X Y Z

Job For A Cowboy - Ruination tab

Tuning: C tuning
Credit to Andreas88 for giving me a great starting point, added a number
of my own touches to make it my own. Many sections may not have the exact
number of strums and what not, just listen to the song to get the exact
pattern yourself, its easier that way. I also added the back up guitar
only in the spots where it was different enough to be worth including.

Riff 1
                                                                 END 1 VVV
|---------------------------------0------------------------0----|-----0~-|
|----------------------------------0-------------0--------0-0---|-----0~-|
|-----------------------------------0------5---5--5------1---1--|--------|
|-----------1~-----------------2~----2-------7-----7----3-----3-|-2~-----|
|--7\3-3-3--3~-----7\3-3-3-3---2~-----2---7---------7--3--------|-2~-----|
|--7\3-3-3--3~-----7\3-3-3-3-0-0~------0------------------------|-0~-----|

End 2 VVV
|-------------------------------------|
|-------------------------------------|
|-------------------------------------|
|----------------------------------2~-|
|-2-2-2-2-2-2-2-2-2-2-2-2-2-2-2-2--2~-|
|-0-0-0-0-0-0-0-0-0-0-0-0-0-0-0-0--0~-|
   P A L M - M U T E D

Transition          End 1 VVV        End 2 VVV(Trem Pick,listen for pattern)
|-------------|-------------------|---------------|
|-------0-----|-------------------|---------------|
|---5----5----|-------------------|---------------|
|-----7---7---|4~--3~--1~--3-1--2~|--10--6---9--5-|
|-7--------7--|6~--5~--3~--5-3--2~|--x---x---x--x-|
|-------------|6~--5~--3~--5-3--0~|--8---4---7--3-|
                          PM
Riff 2 2X
|----------------------------------------------0-----------------|
|----------0-------------------------------0---0-----------------|
|------5----5---------------------------3----3---0---------------|
|-2~-----7---7---4~--3~--1~--3-1--2~--2---2--------10---6----9-5-|
|-2~--7-------7--6~--5~--3~--5-3--2~---------------x-6x-x-6x-x-x-|
|-0~-------------6~--5~--3~--5-3--0~---------------8----4----7-3b|

Riff 3 4X
|---------------------------------|
|---------------------------------|
|---------------------------------|
|---------------------------------|
|-6-6-6-6-----5-5-5-5-----5\3-3-3-|
|-6-6-6-6-0-0-5-5-5-5-0-0-5\3-3-3-|
          P M         P M

Riff 4 2X(listen for palm mute pattern)
|--------------------------------------------------------------------------|
|---------------------------------------------------------------------0----|
|-----------------------------------------------------------------7-7--7---|
|----------------------------------------------2~------------------5----5--|
|-7\3-3-3-3-3-3-3-3-3-3-3-3-3-3-3--7\3-3-3-3---2~-2-2-2-222-2-2--5-------5-|
|-7\3-3-3-3-3-3-3-3-3-3-3-3-3-3-3--7\3-3-3-3-0-0~-0-0-0-000-0-0------------|

------0~----------------------------|
----0-0~----------------------------|
---1--------------------------------|
--3------2~-2~-------2-----2--------|
-3-------2~-2~-2-2-2-2-2-2-2-2-2-2--|
---------0~-0~-0-0-0-0-0-0-0-0-0-0--|
                P M    P M    P M

Riff 4 (Guitar 2)
|-------------------------------------------------------------------------|
|-------------------------------------------------------------------------|
|-------------------------------------------------------------------------|
|----------------------------------------------2~-------------------------|
|-7\3-3-3-3-3-3-3-3-3-3-3-3-3-3-3--7\3-3-3-3---2~-2-2-2-222-2-2--77777777-|
|-7\3-3-3-3-3-3-3-3-3-3-3-3-3-3-3--7\3-3-3-3-0-0~-0-0-0-000-0-0--55555555-|

------------------------------------------|
------------------------------------------|
------------------------------------------|
-------------2~--2~-------2-----2---------|
-3333-3---2--2~--2~-2-2-2-2-2-2-2-2-2-2---|
-1111--3-2---0~--0~-0-0-0-0-0-0-0-0-0-0---|
                    P M     P M    P M
Riff 5 2X
|---------------------------------------------------------------------------|
|---------------------------------------------------------------------------|
|-9-9-9-9-9-9-9-9-9-9-9-9/11-11/12-12\7-7\5-5-5-5-5-5-5-5-5-5-5-5-5\4/8-8-8-|
|-x-x-x-x-x-x-x-x-x-x-x-x-x--x--x--x--x-x-x-x-x-x-x-x-x-x-x-x-x-x-x-x-x-x-x-|
|-7-7-7-7-7-7-7-7-7-7-7-7/9--9/-10-10\5-5\3-3-3-3-3-3-3-3-3-3-3-3-3\2/6-6-6-|
|---------------------------------------------------------------------------|

------------------------------------------------------------|
------------------------------------------------------------|
-8-8-8-8-8-8-8-8-8-8-8/11-11-11-11-11-11-11-11--------------|
-x-x-x-x-x-x-x-x-x-x-x-x--x--x--x--x--x--x--x--9-9-9-9-9-9--|
-6-6-6-6-6-6-6-6-6-6-6/9--9--9--9--9--9--9--9--x-x-x-x-x-x--|
-----------------------------------------------7-7-7-7-7-7--|

Riff 5 (guitar 2) (don't bother counting just listen for the pattern)
|---------------------------------------------------------------------------|
|---------------------------------------------------------------------------|
|---------------------------------------------------------------------------|
|---------------------------------------------------------------------------|
|-2-2-2-2-2-2-2-2-2-2-2-2-2-2-2-2-2-2-2-7-7-7-7-7-7-7-7-7-7-7-7-7-7-7-7-7-7-|
|-0-0-0-0-0-0-0-0-0-0-0-0-0-0-0-0-0-0-0-8-8-8-8-8-8-8-8-8-8-8-8-8-8-8-8-7-7-|

----------------------------------------------------------|
----------------------------------------------------------|
----------------------------------------------------------|
----------------------------------------------------------|
-7-7-7-7-7-7-7-7-7-7-7-7-7-5-5-5-5-5-5-5-5-5-5-5-5-5-5-5--|
-7-7-7-7-7-7-7-7-7-7-7-7-7-5-5-5-5-5-5-5-5-5-5-5-5-5-5-5--|

Transition
|-----------------------------0~------0------------------------------|
|-----------------------------0~-------0-----------------------------|
|---------------------------5-----------0----------------------------|
|--------------------------7-------2~----2---------------------------|
|-7\3-3-3--3-7\3-3-3-3-3--7--------2~-----2---1-3-3-3-3-3-1/4-4444-4-|
|-7\3-3-3--3-7\3-3-3-3-3---------0-0~------0--1-3-3-3-3-3-1/4-4444-4-|
      P M  PM    P MMMMM        PM                P M   pm     P M

Riff 6 2X (same as transition just different strum pattern)
|-----------------------------0~-----0-------------------------------|
|-----------------------------0~------0------------------------------|
|---------------------------5----------0-----------------------------|
|--------------------------7------2~----2----------------------------|
|-7\3-3-3-3-33-7\3-3-3-3--7-------2~-----2---1-3-3-3-3-3-1/4-4444-4--|
|-7\3-3-3-3-33-7\3-3-3-3--------0-0~------0--1-3-3-3-3-3-1/4-4444-4--|
            PM                                   P M   pm     P M
Transition 2X
|-------------------------------------------------------------|
|-------------------------------------------------------------|
|-------------------------------------------------------------|
|-------------------------------------------------------------|
|-2-2-2-2-2-2-2-222-2-2-2-2-2-2-6-6-6-6-6-6-6-6-5-5-5-5-3-3-3-|
|-0-0-0-0-0-0-0-000-0-0-0-0-0-0-6-6-6-6-6-6-6-6-5-5-5-5-3-3-3-|
    almost all palm mutes           P M P M         P M   PM

Riff 7 (play until it fades, alternate between endings 1 and 2)
                                             END 1 VVV
|--------------------------------|-------------------------------------|
|--------------------------------|-------------------------------------|
|--------------------------------|10-10-10-10-10-10-9-9-9-9-9-9-9-9-9-9|
|-7-7-7-7-7-7-7-7-7-7-12-12-11-11|x--x--x--x--x--x--x-x-x-x-x-x-x-x-x-x|
|-5-5-5-5-5-5-5-5-5-5-x--x--x--x-|8--8--8--8--8--8--7-7-7-7-7-7-7-7-7-7|
|-5-5-5-5-6-6-5-5-5-5-10-10-9--9-|-------------------------------------|

        END 2 VVV
|-------------------------------------|
|-------------------------------------|
|-------------------------------------|
|-11-11-11-11-11-11-8-8-8-8-8-8-8-8-8-|
|-x--x--x--x--x--x--x-x-x-x-x-x-x-x-x-|
|-9--9--9--9--9--9--6-6-6-6-6-6-6-6-6-|
Tap to rate this tab
 
# A B C D E F G H I J K L M N O P Q R S T U V W X Y Z