Song name
# A B C D E F G H I J K L M N O P Q R S T U V W X Y Z

Job For A Cowboy - Suspended By The Throat tab

Job For A Cowboy
Suspended By The Throat

Dropped C

play this 2 times (hold the last note on the 2nd time)
d -----------------------------------------------------------|
A -----------------------------------------------------------|
F -----------------------------------------------------------|
C /12---0----7-8--0-3h4p3---7*-0----7-8----------------------|
G /12---0--5------0-------4----0--5--------------------------|
C /12---0---------0------------0--------5-7-8-7-5-4-5-4-3-2--|


Guitar 1
d --------------------------------------------------------------------|
A --------------------------------------------------------------------|
F --------------------------------------------------------------------|
C --------------------------------------------------------------------|
G -------------------3333------3333--------------------3333------3333-|
C 0000000000000-2222------2222------0000000000000-2222------2222------|

Guitar 2
d --------------------------------------------------------------------|
A --------------------------------------------------------------------|
F --------------------------------------------------------------------|
C --------------------------------------------------------------------|
G -----------------------------------------------------3333------3333-|
C 3p2p0-----------------------------3p2p0---------2222------2222------|

Both Play this twice
d ---------------------------------------------|
A ---------------------------------------------|
F ---------------------------------------------|
C ---------------------------------3-2-1-3-2-1-|
G ---------------------------------3-2-1-3-2-1-|
C 33333333666666665555555522222222-3-2-1-3-2-1-|

then 2nd guitar harmonizes
d -------------------------------------------------|
A -------------------------------------------------|
F -------------------------------------------------|
C --------elevens not ones-------------------------|
G 888888881111111111111111101010101010101077777777-
C -------------------------------------------------

d ------------|
A ------------|
F ------------|
C ------------|
G ------------|
C 3s1s3-6-5-2-|

yay solo!

d -----------------------------------------------------------|
A ---------------------------------------------------s15-s19-|
F ----------------8-10-11-------------------10-11-13---------|
C --------8-10-11------------------10-11-13------------------|
G 8-10-11-----------------10-11-13---------------------------|
C -----------------------------------------------------------|

d -----------------------------------------------------------|
A -----------------------------------------------------------|
F -----------------------------------------------------------|
C -----------------------------------------------------------|
G -----------------------------------------------------------|
C 3b----------------------5b-------------------------2b------|


d ---------------------------------------|
A ---------------------------------------|
F ---------------------------------------|
C 0-0-0000-0-0----0000-------------------|
G 0-0-0000-0-0----0000-----3333-----3333-|
C 0-0-0000-0-0----0000-2222-----2222-----|


d ----------------------------------------------|
A ----------------------------------------------|
F ----------------------------------------------|
C 0000000-0-0-000-0-0-0000000-------------------|
G 0000000-0-0-000-0-0-0000000-----3333-----3333-|
C 0000000-0-0-000-0-0-0000000-2222-----2222-----|

Guitar 1
d ------------------------------------------------------------------|
A ------------------------------------------------------------------|
F ------------------------------------------------------------------|
C ------------------------------------------------------------------|
G ----5h7p5-4h5p4-5h7p5-----5h7p5-4h5p4-5h7p5-----5h7p5-4h5p4-5h7p5-|
C 0-0-------------------0-0-------------------0-0-------------------|

d ------------------------|
A ------------------------|
F ------------------------|
C ---------------------7*-|
G 8h10p8-7h8p7-5h7p5-4----|
C ------------------------|

Guitar 2
d ------------------------------------------------------------------|
A ------------------------------------------------------------------|
F ------------------------------------------------------------------|
C ----7h8p7-5h7p5-7h8p7-----7h8p7-5h7p5-7h8p7-----7h8p7-5h7p5-7h8p7-|
G ------------------------------------------------------------------|
C 0-0-------------------0-0-------------------0-0-------------------|

d ---------------------------|
A ---------------------------|
F ---------------------------|
C 10h12p10-8h10p8-7h8p7-5-7*-|
G ---------------------------|
C ---------------------------|


d -----------------------------------|
A -----------------------------------|
F -----------------------------------|
C --------------------------7*-------|
G ----0h5h8-0h4h7-0h1h4--------4h5p4-|
C 0-0-------------------0-0----------|


d --------------------------------------------------|
A --------------------------------------------------|
F --------------------------------------------------|
C --------------------------7*-----------6*---------|
G ----0h5h8-0h4h7-0h1h4--------4h5p4--------4h5p4-0-|
C 0-0-------------------0-0----------0-0----------0-|

d ---------------------------------------------------|
A ---------------------------------------------------|
F ---------------------------------------------------|
C 00000000-------------------------------00000000-7*-|
G 00000000-5p0--8p0--7p0--10p0--8p0--7p0-00000000----|
C 00000000-------------------------------00000000----|

d ----------------------------------------------------------------------|
A ----------------------------------------------------------------------|
F ----------------------------------------------------------------------|
C ----------------------------------------------------------------------|
G 000000-7-5-7-8-000000-8-7-8-10-000000-7-5-7-8------10101010------8888-|
C 000000---------000000----------000000---------8888----------7777------|


d ----------------------------------------------------|
A ----------------------------------------------------|
F ----------------------------------------------------|
C 0-0-000-0-0-000-0-0-000-----------------------------|
G 0-0-000-0-0-000-0-0-000-------10101010------8888----|X4
C 0-0-000-0-0-000-0-0-000--8888----------7777---------|


Guitar 1
d -----------------------------------|
A -----------------------------------|
F -----------------------------------|
C 0-------0---------0--------------0-|
G 0-8-7-8-0-10-8-10-0-8-7-8-10-8-7-0-|
C 0-------0---------0--------------0-|

Guitar 2
d --------------------------------------------|
A --------------------------------------------|
F --------------------------------------------|
C 0----------0----------0-------------------0-|
G 0-12-10-12-0-13-12-13-0-12-10-12-13-12-10-0-|
C 0----------0----------0-------------------0-|
Tap to rate this tab
# A B C D E F G H I J K L M N O P Q R S T U V W X Y Z