Song name
# A B C D E F G H I J K L M N O P Q R S T U V W X Y Z

Job For A Cowboy - Entities tab

d -----------------------------------|
a -----------------------------------|
g --12--11--16---15v----11v--15--14--|
d -----------------------------------|
a -----------------------------------|
d -----------------------------------|


d ------------------------------|
a --20w-19w-16w-15w-------------|
g ------------------------------|
d ------------------------------|
a ------------------------------|
d ------------------------------|

d ----18-17---------------------|
a ------------------------------|
g ------------------------------|
d ------------------------------|
a ------------------------------|
d ------------------------------|

d ---17-18-22-18-17---17-18-21-18-17--|
a -20---------------20----------------|
g ------------------------------------|
d ------------------------------------|
a ------------------------------------|
d ------------------------------------|

d -18-17-16----------16-17-18-17-16----------16-17-|
a ----------18-17-18----------------18-17-18-------|
g -------------------------------------------------|
d -------------------------------------------------|
a -------------------------------------------------|
d -------------------------------------------------|

d -18-17-16----------16-17-18-17-16----------16-17-|
a ----------18-17-18----------------18-17-18-------|
g -------------------------------------------------|
d -------------------------------------------------|
a -------------------------------------------------|
d -------------------------------------------------|

d -17-14----------14-17-14----------14-------------|
a -------16----16----------16----16----------------|
g ----------17----------------17-------------------|
d -------------------------------------------------|
a -------------------------------------------------|
d -------------------------------------------------|

d -17-14----------14-17-14----------14-------------|
a -------16----16----------16----16----------------|
g ----------17----------------17-------------------|
d -------------------------------------------------|
a -------------------------------------------------|
d -------------------------------------------------|

d -16-13----------13-16-13----------13-------------|
a -------15----15----------15----15----------------|
g ----------16----------------16-------------------|
d -------------------------------------------------|
a -------------------------------------------------|
d -------------------------------------------------|

d -16-13----------13-16-13----------13-------------|
a -------15----15----------15----15----------------|
g ----------16----------------16-------------------|
d -------------------------------------------------|
a -------------------------------------------------|
d -------------------------------------------------|

d --18----18-17s-15--17--15s-14--------------------|
a -------------------------------------------------|
g -------------------------------------------------|
d -------------------------------------------------|
a -------------------------------------------------|
d -------------------------------------------------|

d --15--14s-12--14--12s-11-12-11-------------------|
a -------------------------------------------------|
g -------------------------------------------------|
d -------------------------------------------------|
a -------------------------------------------------|
d -------------------------------------------------|

d --21----20-21-20s-18-20-18s-17-18-17s-15-17-15s-14-13-|
a ------------------------------------------------------|
g ------------------------------------------------------|
d ------------------------------------------------------|
a ------------------------------------------------------|
d ------------------------------------------------------|

d -------------13-17-13----------13-17-13---------------|
a ----------15----------15----15----------15------------|
g -------14----------------14----------------14---------|
d ----15----------------------------------------15------|
a -17---------------------------------------------------|
d ------------------------------------------------------|

d -------------13-17-13----------13-17-13---------------|
a ----------15----------15----15----------15------------|
g -------14----------------14----------------14---------|
d ----15----------------------------------------15------|
a -17---------------------------------------------------|
d ------------------------------------------------------|

d -------------15-19-15----------15-19-15----------15---|
a ----------17----------17----17----------17----17------|
g -------16----------------16----------------16---------|
d ----17------------------------------------------------|
a -19---------------------------------------------------|
d ------------------------------------------------------|

d ---------15-19-15----------15-19-15----------15-19-15--------|
a -------17---------17----17----------17----17----------17-----|
g -----16--------------16----------------16-----------------16-|
d ---17--------------------------------------------------------|
a -19----------------------------------------------------------|
d -------------------------------------------------------------|

d -------------13-17-13----------13-17-13---------------|
a ----------15----------15----15----------15------------|
g -------14----------------14----------------14---------|
d ----15----------------------------------------15------|
a -17---------------------------------------------------|
d ------------------------------------------------------|

d -------------13-17-13----------13-17-13---------------|
a ----------15----------15----15----------15------------|
g -------14----------------14----------------14---------|
d ----15----------------------------------------15------|
a -17---------------------------------------------------|
d ------------------------------------------------------|

d -------------15-19-15----------15-19-15----------15---|
a ----------17----------17----17----------17----17------|
g -------16----------------16----------------16---------|
d ----17------------------------------------------------|
a -19---------------------------------------------------|
d ------------------------------------------------------|

d ---------15-19-15----------15-19-15----------15-19-15--------|
a -------17---------17----17----------17----17----------17-----|
g -----16--------------16----------------16-----------------16-|
d ---17--------------------------------------------------------|
a -19----------------------------------------------------------|
d -------------------------------------------------------------|

d -------------------------11----11-13-11-13-14-13-14-16-16---|
a -------------------12-14----14------------------------------|
g ------------------------------------------------------------|
d ----------10-12-13------------------------------------------|
a -10-12-13---------------------------------------------------|
d ------------------------------------------------------------|

d ----------------------19v
a
g
d
a
Tap to rate this tab
# A B C D E F G H I J K L M N O P Q R S T U V W X Y Z