Guitaretab - guitar tabs
Song name
# A B C D E F G H I J K L M N O P Q R S T U V W X Y Z

Job For A Cowboy - Entombment Of Machine tab

Job for a cowboy 
Album-Doom
Tabb.by Gerald Catague

Tuning Drop.C

PM- .

p=pull

==================================================================
Intro
Guitar 1-and-2
D---------------------------------|\
A---------------------------------| \
F---------------------------------|  \
C---------------------------------|   \(Repeat 4X)
G---------------------3-3-4-4-----|   / 
C--1-1-4-4-1-1-3-3-0----------0-0-|__/  

is not a machine...
guitar 1 and 2
D-------------------|
A-------------------|
F-------------------|--->(Repeat this at (4x) 
C-------------------|
G-----------------5-|
C--4-7-6-7-7-6-7----|

and do this
Repeat 2X
Guitar 1 and 2 

D----------------|		
A----------------|	
F----------------|	
C----------------|
G--0----0-4-3--1-|		
C--0----0-4-3--1-|

and this...
Guitar 1 and 2 
D---------------------------------------------|
A---------------------------------------------|
F---------------------------------------------|
C---------------------------------------------|
G---------------------------------------------|
C--7-4-6-3-7-4-6-3--4-4-4-4-1-1-1-1-3-3-3-3-0-|
   . . . . . . . .	

It's Body is Coverd
Guitar 1 and 2
D-------------------------------------------------------------|
A-------------------------------------------------------------|
F-------------------------------------------------------------|
C-------------------------------------------------------------|-->Repeat this 4x
G-------------------------------------------------------------|
C--4-4-4-4-4-4-4-4-1-1-1-1-1-1-1--3-3-3-3-3-3-3-0-0-0-0-0-0-0-|

Guitar 1 
D----------------|		
A----------------|	
F----------------|	
C----------------|--->Repeat this 2x
G--0----0-4-3--1-|		
C--0----0-4-3--1-|

and Guitar 2 do this
D--------------------------------------|
A--------------------------------------|
F--------------------------------------|
C--------------------------------------|
G--4~--1~--3~--0~--4~--1~--3~--0-0-0-5-|
C--4~--1~--3~--0~--4~--1~--3~--0-0-0---|

Guitar 1 and Guitar 2
PRT(1)
D----------------|		
A----------------|	
F----------------|	
C----------------|--->Repeat this 2x
G--0----0-4-3--1-|		
C--0----0-4-3--1-|

Guitar 2 only and the Guitar 1 Continue ply PRT 1
D-------------------------------------------------------------|
A-------------------------------------------------------------|
F-------------------------------------------------------------|
C-------------------------------------------------------------|
G-------------------------------------------------------------|
C--4-4-4-4-4-4-4-4-1-1-1-1-1-1-1--3-3-3-3-3-3-3-0-0-0-0-0-0-0-|


D----------------------------------------------------------|
A----------------------------------------------------------|
F----------------------------------------------------------|
C----------------------------------------------------------|
G-------------------------------------------------------5--|
C--4-4-4-4-4-4-4-4-1-1-1-1-1-1-1--3-3-3-3-3-3-3-0-0-0------|

Guitar 1
D---------------------|
A---------------------|
F---------------------|
C---------------------|
G--1--------0-0-0---5-|
C--1--------0-0-0-----|

Guitar 1 and 2 
D-----------------------------------------------------------------|	
A-----------------------------------------------------------------|
F-----------------------------------------------------------------|
C-----------------------------------------------------------------|-->Repeat this 2x
G-0--4--3--1--0-4-3-1-0-0-0--0-0-0--0-4-3-1--0-4-3-1-0-0-0--0-0-0-|	
C-0--4--3--1--0-4-3-1-0-0-0--0-0-0--0-4-3-1--0-4-3-1-0-0-0--0-0-0-|
		      . . .  . . .                   . . .  . . .
Guitar 1 and 2 
D------------------------------------------------------------------|
A------------------------------------------------------------------|
F------------------------------------------------------------------|
C------------------------------------------------------------------|
G--------5--------------4---------------5----------------4---------|
C--5-7-8--8-7-5-7-4-6-7--7-6-4-6--5-7-8---8-7-5-7--4-6-7--7-6-4-6--|



Guitar 1 only 

D----------------------|
A----------------------|
F----------------------|
C----------------------|
G----------------------|
C--5p-0-5p-0-5p-0-5p-0-|


guitar 2 do this And Continue ply this Guitar 2 only
D-----------------------------------------------|
A-----------------------------------------------|
F-----------------------------------------------|
C-----------------------------------------------|
G-----------------------------------------------|
C--1~-0~-1~-0~-1~-0~-1~-0-~1~-0-~1~-0-~1~-0---1-|

Guitar 1 do this 
D---------------------------------------------------|
A---------------------------------------------------|
F---------------------------------------------------|--Repeat this (3x)
C---------------------------------------------------|
G--------5-----------5------------4-----------4-----|
C--5-7-8---8-7-5-7-8---8-7--4-6-7---7-6-4-6-7---7-6-|

Guitar 1 		     Guitar 2
D--------------------------|------------------------|
A--------------------------|------------------------|
F--------------------------|------------------------|
C--------------------------|------------------------|--->Repeat this (4x)
G--------5-----------5-----|--------4--------4------|
C--5-7-8---8-7-5-7-8---8-7-|--4-6-7----4-6-7--------|

Guitar 1 and Guitar 2 
D-------------------------|-----------------------------|
A-------------------------|-----------------------------|
F-------------------------|-----------------------------|
C-------------------------|-----------------------------|-Repeat this 2x
G-------------------------|-----------------------------| 
C-1-1-1-1-1-1-1-1-1-1-1-1-|-0--0--0--0-----0--0--0--0---|
			    .  .  .   .    .  .  .  .

and do this
D-----------------------------|
A-----------------------------|
F-----------------------------|
C-----------------------------|
G-----------------------------|
C-0--0--0--0-----0--0--0--0---|
  .  .  .  .     .  .  .  .   


Guitar 1
D--------------------------|------------------------|--------------------------|
A--------------------------|------------------------|--------------------------|   
F--------------------------|------------------------|--------------------------|
C--------------------------|------------------------|--------------------------|
G--------5-----------5-----|--------4--------4------|--------5-----------5-----|
C--5-7-8---8-7-5-7-8---8-7-|--4-6-7----4-6-7--------|--5-7-8---8-7-5-7-8---8-7-|
   . . . . . . . . . . . .    . . . . . . .  .         . . . . . . . . . . . .

Guitar 2 
D-------------------------|-----------------------------|-------------------------|
A-------------------------|-----------------------------|-------------------------|
F-------------------------|-----------------------------|-------------------------|
C-------------------------|-----------------------------|-------------------------|
G-------------------------|-----------------------------|-------------------------| 
C-1-1-1-1-1-1-1-1-1-1-1-1-|-0--0--0--0-----0--0--0--0---|-1-1-1-1-1-1-1-1-1-1-1-1-|
			    .  .  .   .    .  .  .  .
[ Tab from: http://www.guitaretab.com/j/job-for-a-cowboy/85716.html ]
Guitar 1
D-------------------------| \
A-------------------------|  \
F-------------------------|   \
C-------------------------|    \ 
G---------------0---------|     \ 
C-5----1h-4h-1--0---------|      \
                                  \
                                   \
guitar 1                            \
D----------------------------|       \
A----------------------------|        \
F----------------------------|         \
C----------------------------|          \
G------------5------------6--|           \
C-0--0--0--0---0--0--0--0----|            \
  .  .  .  .   .  .  .  .                  \
                                            \
GUITAR 1                                     \Repeat This Part at 4X
D-------------------|                        /
A-------------------|                       /
F-------------------|                      / 
C-------------------|                     /
G-------------------|                    / 
C-5--8--4--7--------|                   /
                                       /
guitar 1                              /
D----------------------------|       /
A----------------------------|      / 
F----------------------------|     /
C----------------------------|    /
G------------5------------6--|   /
C-0--0--0--0---0--0--0--0----|  /
  .  .  .  .   .  .  .  .


Guitar 2
D-------------------------| \
A-------------------------|  \
F-------------------------|   \
C-------------------------|    \ 
G---------------0---------|     \ 
C-5----1p-4h-1--0---------|      \
                                  \
                                   \
guitar 2                            \
D----------------------------|       \
A----------------------------|        \
F----------------------------|         \
C----------------------------|          \
G------------8------------9--|           \
C-0--0--0--0---0--0--0--0----|            \
  .  .  .  .   .  .  .  .                  \
                                            \
GUITAR 2                                     \Repeat This Part at 2X Only
D-------------------|                        /
A-------------------|                       /
F-------------------|                      / 
C-------------------|                     /
G-------------------|                    / 
C-8-11--7--10-------|                   /
                                       /
guitar 2                              /
D----------------------------|       /
A----------------------------|      / 
F----------------------------|     /
C----------------------------|    /
G------------8------------9--|   /
C-0--0--0--0---0--0--0--0----|  /
  .  .  .  .   .  .  .  .


Guitar 2 Do same guitar 1 at 2X

and do this 
Guitar 1
D---------------------|------------------------------------------|
A---------------------|------------------------------------------|
F---------------------|------------------------------------------|
C---------------------|------------------------------------------|
G--------------0------|-5---4h-5h-4p-1--4h-1---1h-4--0--0--0--0--|
C-5---1p-4h-1--0------|------------------------------0--0--0--0--|
gUITAR 1 prt 3
D-----------------------------------|
A-----------------------------------|
F-----------------------------------|
C-----------------------------------|
G-5--4-5-4--1-4--1--1h4-0--0--0--0--|
C-----------------------0--0--0--0--|

D-------------------|\
A-------------------| \
F-------------------|  \
C-------------------|   \
G-------------------|    \
C--5--4-5-4--1-4--1-|     \
                           \
D--------------------|      \
A--------------------|      /Repeat This Part at 4X Only
F--------------------|     /
C--------------------|    /    
G--------0-0-0-0-----|   /    
C--1--4--0-0-0-0-----|  /   
AND GUITAR 1 REPEAT 3


gUITAR 2 dO THIS
D---------------------|-----------------------------------------|
A---------------------|-----------------------------------------|
F---------------------|-----------------------------------------|
C---------------------|-----------------------------------------|
G--------------0------|-5---4--5--4--1-4--1---1--4--0--0--0--0--|
C-5---1--4--1--0------|-----------------------------0--0--0--0--|

GUITAR 2
prt 2
D-----------------|-------------------|
A-----------------|-------------------|
F-----------------|-------------------|
C-----------------|-------------------|-->REPAT THIS 2X
G--8--7-8-7--4-7--|--4--4-7--0-0-0-0--|
C-----------------|----------0-0-0-0--|


GUITAR 2
D-------------------|\
A-------------------| \
F-------------------|  \
C-------------------|   \
G-------------------|    \
C--5--4-5-4--1-4--1-|     \
                           \
D--------------------|      \
A--------------------|      /Repeat This Part at 2X Only
F--------------------|     /
C--------------------|    /    
G--------0-0-0-0-----|   /    
C--1--4--0-0-0-0-----|  / 

AND GUITAR 2
REPEAT PRT 2

GUITAR 1 AND GUITAR 2 DO THIS repeat this 3x
D--------------------------------|------------------|------------|
A--------------------------------|------------------|------------|
F--------------------------------|------------------|------------|
C--------------------------------|------------------|------------|
G--0--0-0-1--0-0--4--0-1-0-4---4-|-0--0-0-1--0-0-4--|--0--4-3-1--|
C--0--0-0-1--0-0--4--0-1-0-4-----|-0--0-0-1--0-0-4--|--0--4-3-1--|
						       .  . . . 
AND DO THIS
D------------|
A------------|
F------------|
C------------|
G--0--4-3-1--|
C--0--4-3-1--|
   .  . . .



GUITAR 1 ONLY 
prt 3
REPEAT THIS 2X
D-----------------------|\
A-----------------------| \
F-----------------------|  \
C-----------------------|   \
G------1-1-1----1-1-1---|    \
C--3-2------3--2--------|     \
   . .      .  .               \
After you repeat 2x do this     \  
and repeat 2x                    \                                 \  
D-----------------------|         \ Repeat This 2x 
A-----------------------|         /     
F-----------------------|        /
C-----------------------|       /
G------4-4-4-----4-4-4--|      /
C--6-5------6--5--------|     /
   .  .     .  .
and rapeat part 3 


GUITAR 2 ONLY 
REPEAT THIS 2X
D-----------------------|
A-----------------------| 
F-----------------------| 
C-----------------------|   
G------4-4-4----4-4-4---|   
C--3-2------3--2--------|    
   . .      .  .               
After you repeat 2x do this      
and repeat 2x                                    
D-----------------------|         
A-----------------------|            
F-----------------------|        
C-----------------------|       
G------7-7-7-----7-7-7--|       
C--6-5------6--5--------|      
   .  .     .  .

gUITAR 2 oNLY
PLY THIS tremolo picking 
D-------------------------|
A-------------------------|
F-------------------------|
C--3-------------3--------|
G----4------1------4----0-|
C-------------------------|


AND DO THIS

GUITAR 1 ONLY 
REPEAT THIS 2X
D---------------|
A---------------| 
F---------------|  
C---------------|   
G------1--1-----|    
C--3-2---3--2---|     
   . .      .  .               
After you repeat 2x do this      
and repeat 2x                                                      
D----------------|          
A----------------|         
F----------------|      
C----------------|       
G------4-----4---|      
C--6-5---6--5----|    
   .  .     .  .
and rapeat part 3 

GUITAR 2 ONLY 
REPEAT THIS 2X
D------------------|
A------------------| 
F------------------| 
C------------------|   
G------4------4----|   
C--3-2---3--2------|    
   . .      .  .               
After you repeat 2x do this      
and repeat 2x                                    
D-----------------|         
A-----------------|            
F-----------------|        
C-----------------|       
G------7------7---|       
C--6-5---6--5-----|      
   .  .     .  .


end....
============================================================================================

===============================
I hope you are happy for this tab for comment and suggestion pls. e-mail me at 

Catague1902@yahoo.com donít forget to rating this thank you have fun  
============================================================================================

================================
Related for Entombment Of Machine tab