Song name
# A B C D E F G H I J K L M N O P Q R S T U V W X Y Z

Job For A Cowboy - The Rising Tide tab

Some of the harmonizing parts could be and probably are off, but besides that, most of 
should be pretty close.
comment and rate!!

|--------------------------------------------------------------|
|--------------------------------------------------------------|
|--------------------------------------------------------------|
|--------------------------------------------------------------|
|--------------------------------------------------------------|
|0---5---0---5---0---5---8---4---0---5---0---5---0---5---8---4-|
|T   T   T   T   T   T   T   T   T   T   T   T   T   T   T   T
|
|--------------------------------------------------------------|
|--------------------------------------------------------------|
|--------------------------------------------------------------|
|--------------------------------------------------------------|
|000-0---------------------------000-0-------------------------|
|000-0---------------------------000-0-------------------------|
 ... .                           ... .

|----------------------------------------------------------------|
|----------------------------------------------------------------|
|----------------------------------------------------------------|
|----------------------------------------------------------------|
|----------------------------------------------------555-----444-|
|0---5---0---5---0---5---8---4---0---5---0---5---888-----777-----|
|T   T   T   T   T   T   T   T   T   T   T   T   ...     ...
|
|----------------------------------------------------------------|
|----------------------------------------------------------------|
|----------------------------------------------------------------|
|----------------------------------------------------------------|
|000-0~--------------------------000-0---------------555-----444-|
|000-0~--------------------------000-0-----------888-----777-----|
 ...                             ... .           ...     ...

|------------------------|
|------------------------|
|------------------------|
|------------------------|
|0--5--0--5--0--5--8--4--|
|------------------------|
|T  T  T  T  T  T  T  T  \
|                         x3
|-------------------------|
|-------------------------|
|-------------------------|
|-------------------------|
|0--8--0--8--0--8--12-7---|
|-------------------------|
 T  T  T  T  T  T  T  T

|-----------------------------|
|-----------------------------|
|-----------------------------|
|-----------------------------|
|0--5--0--5-5h8p5-4h7p4-1h4p1-|
|-----------------------------|
|T  T  T  T
|
|-----------------------------|
|-----------------------------|
|-----------------------------|
|-----------------------------|
|0--8--0--8-------------------|
|-----------------------------|
 T  T  T  T

-------------------------|
-------------------------|
-------------------------|
0~---4----1----0---------|
0~---4----1----0--00000--|
0~---4----1----0--00000--|
     .    .    .  .....

-----------------------------------|
-----------------------------------|
-----------------------------------|
-----------------------------------|X2
------5--------5--------4--------4-|
8--5-----8--5-----7--4-----7--4----|
T  T  T  T  T  T  T  T  T  T  T  T
.  .     .  .     .  .     .  .

--------------------------------|
--------------------------------|
--------------------------------|x2
------6-5-------------5-4-------|
3-4-5-----6-5-4-2-3-4-----5-4-3-|
--------------------------------|
T T T T T T T T T T T T T T T T

|---------------------------|
|---------------------------|
|---------------------------|
|---------------------------|
|---------------------------|
|5-8-4--5-8-4--5-8-4--5-8-4-|
|T T T  T T T  T T T  T T
|
|---------------------------|
|---------------------------|
|---------------------------|
|---------------------------|
|---------------------------|
|--------------5-8-4--5-8-4-|
               T T T  T T

|-----------------------------------------|
|-----------------------------------------|
|-----------------------------------------|x2
|-----------------------------------------|
|----12-8------12-13------11-7------11-12-|
|000-------000--------000-------000-------|
|... T  T  ... T  T   ... T  T  ... T  T

|-----------------------------------------|
|-----------------------------------------|
|-----------------------------------------|
|-----------------------------------------|
|----12-8------12-13------11-7------11-12-|
|000-------000--------000-------000-------|
|... T  T  ... T  T   ... T  T  ... T  T  \
|                                          x2
|------------------------------------------|
|------------------------------------------|
|------------------------------------------|
|------------------------------------------|
|----15-12-----15-17------14-11-----14-15--|
|000-------000--------000-------000--------|
|... T  T  ... T  T   ... T  T  ... T  T

|----------------------------------------------------------------|
|----------------------------------------------------------------|
|----------------------------------------------------------------|
|----------------------------------------------------------------|
|----555-----555-----555-----555-----444-----444-----444-----444-|
|885-----885-----885-----885-----774-----774-----774-----774-----|
|... ... ... ... ... ... ... ... ... ... ... ... ... ... ... ...
|
|----------------------------------------------------------------|
|----------------------------------------------------------------|
|----------------------------------------------------------------|
|----------------------------------------------------------------|
|--------------------------------5'--------------3'----3'--------|
|---------------------------------------------------3'-----------|


|----------------------------------------------------------------|
|----------------------------------------------------------------|
|----------------------------------------------------------------|
|----------------------------------------------------------------|
|----555-----555-----555-----555-----444-----444-----444-----444-|
|885-----885-----885-----885-----774-----774-----774-----774-----|
|... ... ... ... ... ... ... ... ... ... ... ... ... ... ... ...
|
|----------------------------------------------------------------|
|----------------------------------------------------------------|
|----------------------------------------------------------------|
|5---------------8---------------4---------------1---------------|
|x---------------x---------------x---------------x---------------|
|5---------------8---------------4---------------1-------1*------|


|----------------------------------------------------------------|
|----------------------------------------------------------------|
|----------------------------------------------------------------|
|----------------------------------------------------------------|
|----555-----555-----555-----555-----444-----444-----444-----444-|
|885-----885-----885-----885-----774-----774-----774-----774-----|
|... ... ... ... ... ... ... ... ... ... ... ... ... ... ... ... \
|                                                                 x4
|-----------------------------------------------------------------|
|-----------------------------------------------------------------|
|-----------------------------------------------------------------|
|-----------------------------------------------------------------|
|-----------------------------------------------------------------|
|5555555555555555888888888888888844444444444444441111111111111111


|------------------------------------------------------------------|
|------------------------------------------------------------------|
|------------------------------------------------------------------|
|8---------------12--------------7---------------4-----------------|
|x---------------x---------------x---------------x-----------------|
|8---------------12--------------7---------------4(trem. bar)----\-|
|                                                                 x4
|                                                                /
|----------------------------------------------------------------|
|----------------------------------------------------------------|
|----------------------------------------------------------------|
|5---------------8---------------4---------------1---------------|
|x---------------x---------------x---------------x---------------|
|5---------------8---------------4---------------1(trem. bar)----|


|----------------------------------------------------------------|
|----------------------------------------------------------------|
|----------------------------------------------------------------|
|8---------------12--------------7---------------4------------0--|
|x---------------x----4--3--1----x---------------x------------0--|
|8---------------12---4--3--1----7---------------4(trem. bar)-0--|
|                     .  .  .
|
|----------------------------------------------------------------|
|----------------------------------------------------------------|
|----------------------------------------------------------------|
|5---------------8---------------4---------------1------------0--|
|x---------------x----4--3--1----x---------------x------------0--|
|5---------------8----4--3--1----4---------------1(trem. bar)-0--|
|                     .  .  .

------------------------------------|
------------------------------------|
------------------------------------|
------------------------------------|
000-000--000-000--------------------|
000-000--000-000--------------------|
... ...  ... ...

|-----------------------------------------------------------|
|-----------------------------------------------------------|
|-----------------------------------------------------------|
|------------------------------------------0-8-7------------|
|----4-5-6---------4-5-6--3*-----4-5-6-----------8-7--3*----|
|000-------000-000-----------000-------000------------------|
|...       ... ...           ...       ...                 \
|                                                          x2
|----------------------------------------------------------|
|----------------------------------------------------------|
|----------------------------------------------------------|
|----------------------------------------------------------|
|----------------------------------------------------------|
|000000000000000000000000000088888888888888555555555444555
|.........................................................

|-----------------------------------------------------------|
|-----------------------------------------------------------|
|-----------------------------------------------------------|
|------------------------------------------0-8-7------------|
|----4-5-6---------4-5-6--3*-----4-5-6-----------8-7--3*----|
|000-------000-000-----------000-------000------------------|
|...       ... ...           ...       ...                \
|                                                          x2
|----------------------------------------------------------|
|----------------------------------------------------------|
|----------------------------------------------------------|
|------------------------------------------0-8-7-----------|
|000-000---000-000-----------000-000---000-------8-7--3*---|
|000-000---000-000-----------000-000---000-----------------|
|... ...   ... ...           ... ...   ...

---------------------------------------------------------|
---------------------------------------------------------|
---------------------------------------------------------|x2
------------------------------------------0-8-7----------|
000-000---000-000--000-000--000-000---000-------8-7--3*--|
000-000---000-000--000-000--000-000---000----------------|
... ...   ... ...  ... ...  ... ...   ...

---------------------------------------------------------|
---------------------------------------------------------|
-------------------7/8-8/9-------------------------------|x2
------------------------------------------0-8-7----------|
000-000---000-000--5/6-6/7--000-000---000-------8-7--3*--|
000-000---000-000-----------000-000---000----------------|
... ...   ... ...           ... ...   ...

---------------------------|
---------------------------|
---------------------------|
---------------------------|x4
000-5-8-7-000-4-0-5-8-7-3*-|
---------------------------|


------------------------------------|
------------------------------------|
------------------------------------|
------------1------------------0----|
------------1------------------0----|
4---2---1---1--drums, bass-----0----|
T   T   T

------------------------------------------------|
------------------------------------------------|
------------------------------------------------|
------------------------4-2-1-4-2-1-5-7-8-5-7-8-|x3
------------------------------------------------|
4-2-1-4-2-1-5-7-8-5-7-8-------------------------|
T T T T T T T T T T T T T T T T T T T T T T T T

|----------------------------------------------------------------------------|
|----------------------------------------------------------------------------|
|11-9--8--11-9--8--12-14-15-12-14-15-15-14-12-15-14-12-15-17-18-15-17-18-18~-|
|----------------------------------------------------------------------------|
|----------------------------------------------------------------------------|
|----------------------------------------------------------------------------|
|T  T  T  T  T  T  T  T  T  T  T  T  T  T  T  T  T  T  T  T  T  T  T  T
|
|----------------------------------------------------------------------------|
|----------------------------------------------------------------------------|
|15-14-12-15-14-12-15-17-18-15-17-18-18-17-15-18-17-15-18-20-21-18-20-21-21~-|
|----------------------------------------------------------------------------|
|----------------------------------------------------------------------------|
|----------------------------------------------------------------------------|
|T  T  T  T  T  T  T  T  T  T  T  T  T  T  T  T  T  T  T  T  T  T  T  T

-------------|
-------------|
-------------|
0000-000-0---|x3, 4th time, don't play the last note
0000-000-0---|
0000-000-0---|
.... ... .

-----------------------------------------------------|
-----------------------------------------------------|
------------------7\6-6/7----------------------------|
--------------------------------------1/3---4\3-1/3--|x4
0000-000--0000-00-5\4-4/5-0000-000--0-1/3-0-4\3-1/3--|
0000-000--0000-00---------0000-000--0-1/3-0-4\3-1/3--|
.... ...  .... ..         .... ...  .     .

------------------|
------------------|
------------------|
0-1-3-0-4-3-1-3-0-|
0-1-3-0-4-3-1-3-0-|
0-1-3-0-4-3-1-3-0-|
. . . . . . . . .
Tap to rate this tab
 
# A B C D E F G H I J K L M N O P Q R S T U V W X Y Z