Song name
# A B C D E F G H I J K L M N O P Q R S T U V W X Y Z

Job For A Cowboy - Bearing The Serpents Lamb tab

Key: Palm Muting = .
     Trem. Pick  = I'll just tell you.
     Hammer On   = h
     Pull Off    = p
     Slide Up    = /
     Slide Down  = \
     Vibrato     = ~

Gtr 1
|-------------------------------|
|-------------------------------|
|-------------------------------|
|-2-----2-----------------------|
|-2-------3-2-3-2---2-----1-----|
|-2---------------5---5-2---4-1-|
Gtr 2
|-------------------------------|
|-------------------------------|
|-------------------------------|
|-2-----2-----------------------|
|-2-----2-----------2-----1-----|
|-2-----2-------------5-2---4-1-|

Both Guitars      1,3                 2                     4
|--------------------|------------------|---------------------|  x2
|--------------------|------------------|---------------------|
|--------------------|------------------|---------------------|
|------2h5p2---------|-----5h8p5--------|---------------------|
|--------------------|------------------|----2---2h3----------|
|-2-1--------5-2-5-2-|5-4--------8-5-8-5|222---2-----1-111-111|
             . . . .             . . . . ...   .       ... ...

Gtr 2 plays this Second time.
                 1,3                    2                     4
|-------------------|--------------------|---------------------|
|-------------------|--------------------|---------------------|
|-------------------|--------------------|---------------------|
|-----5h8p5---------|----8h11p8----------|---------------------|
|-------------------|--------------------|----2---2h3----------|
|-5-4-------8-5-8-5-|8-7--------11-8-11-8|222---2-----1-111-111|
            . . . .              . .  . . ...   .       ... ...

Both Gtrs             1,3                       2
|------------------------|-----------------------|------------|
|------------------------|-----------------------|------------|
|------------------------|-----------------------|------------|
|------------------------|-----------------------|------------|
|-2-----2-----2-------1--|5-----5-----5-------4h7|5-------4h7-|
|---2-2---2-2---2-2-5---5|--5-5---5-5---5-5-8----|--5-5-8-----|
    . .   . .   . .         . .   . .   . .         . .
              4
|--------------| x2
|--------------|
|--------------|
|--------------|
|-8--------7h10|
|---8-8-11-----|
    . .
Gtr 2 plays this Second time.
                      1,3                        2
|------------------------|-------------------------|--------------|
|------------------------|-------------------------|--------------|
|------------------------|-------------------------|--------------|
|------------------------|-------------------------|--------------|
|-5-----5-----5-------4--|8-----8-----8--------7h10|8--------7h10-|
|---5-5---5-5---5-5-8---8|--8-8---8-8---8-8-12-----|--8-8-12------|
    . .   . .   . .         . .   . .   . .           . .
                 4
|-----------------|
|-----------------|
|-----------------|
|-----------------|
|12----------11h14|
|---12-12-13------|
     .  .

Both Gtrs
                      1,3                       2                     4
|------------------------|-----------------------|---------------------| x2
|------------------------|-----------------------|---------------------|
|-4-----4-----3----------|-----------------------|3-----3-----2---2---2|
|-----------------4------|5-----5-----5---4---8--|---------------------|
|---2-2---2-2---2---2-5-2|-----------------------|--1-1---1-1---1---1--|
|------------------------|--5-5---5-5---5---5---5|---------------------|
    . .   . .   .   .   .   . .   . .   .   .   .   . .   . .   .   .

Gtr 2 plays this 2nd time.
                      1,3                        2                     4
|------------------------|------------------------|---------------------|
|------------------------|------------------------|---------------------|
|-7-----7-----6----------|------------------------|6-----6-----5---5---5|
|-----------------7------|8-----8-----8---7---11--|---------------------|
|---5-5---5-5---5---5-8-5|------------------------|--4-4---4-4---4---4--|
|------------------------|--8-8---8-8---8---8----8|---------------------|
    . .   . .   .   .   .   . .   . .   .   .    .   . .   . .   .   .

Gtr 1                 1,3                       2
|------------------------|-----------------------|------------|
|------------------------|-----------------------|------------|
|------------------------|-----------------------|------------|
|------------------------|-----------------------|------------|
|-2-----2-----2-------1--|5-----5-----5-------4h7|5-------4h7-|
|---2-2---2-2---2-2-5---5|--5-5---5-5---5-5-8----|--5-5-8-----|
    . .   . .   . .         . .   . .   . .         . .
              4
|--------------| x2
|--------------|
|--------------|
|--------------|
|-8--------7h10|
|---8-8-11-----|
    . .

Gtr 2 First time only.
                      1,3                        2
|------------------------|------------------------|------------|
|------------------------|------------------------|------------|
|------------------------|------------------------|------------|
|------------------------|------------------------|------------|
|-2-----2----------------|5-----5-----------------|5-------4h7-|
|---2-2---2-2------------|--5-5---5-5-------------|--5-5-8-----|
    . .   . .               . .   . .                . .
              4
|--------------|
|--------------|
|--------------|
|--------------|
|-8--------7h10|
|---8-8-11-----|
    . .
Gtr 2 plays this 2nd time.
                      1,3                         2
|------------------------|-------------------------|--------------|
|------------------------|-------------------------|--------------|
|------------------------|-------------------------|--------------|
|------------------------|-------------------------|--------------|
|-5-----5-----5-------4--|8-----8-----8--------7h10|8--------7h10-|
|---5-5---5-5---5-5-8---8|--8-8---8-8---8-8-12-----|--8-8-12------|
    . .   . .   . .         . .   . .   . .           . .
                 4
|-----------------|
|-----------------|
|-----------------|
|-----------------|
|12----------11h14|
|---12-12-13------|
     .  .
Both Gtrs. Not completely sure on this one...but its close!
|---------------------------------------------|
|---------------------------------------------| x4
|---------------------------------------------|
|------------------------------------------1h4|
|----------2h3---3---3-------2h3-------1------|
|2-222-222-----2---2---1-111-----1-111---1----|
   ... ...     .   .     ...       ...   .

Both Guitars      1,3                 2                     4
|--------------------|------------------|---------------------|  x2
|--------------------|------------------|---------------------|
|--------------------|------------------|---------------------|
|------2h5p2---------|-----5h8p5--------|---------------------|
|--------------------|------------------|----2---2h3----------|
|-2-1--------5-2-5-2-|5-4--------8-5-8-5|222---2-----1-111-111|
             . . . .             . . . . ...   .       ... ...

Gtr 2 plays this Second time.
                 1,3                    2                     4
|-------------------|--------------------|---------------------|
|-------------------|--------------------|---------------------|
|-------------------|--------------------|---------------------|
|-----5h8p5---------|----8h11p8----------|---------------------|
|-------------------|--------------------|----2---2h3----------|
|-5-4-------8-5-8-5-|8-7--------11-8-11-8|222---2-----1-111-111|
            . . . .              . .  . . ...   .       ... ...

Both Gtrs.
Trem. Pick
|----------------------|
|----------------------| x4
|----------------------|
|-----5----------------|
|-------3-2--4----3----|
|-2-1----------2----2-1|

Gtr 2 plays this 3rd and 4th times.
|----------------------|
|----------------------|
|----------------------|
|-----8----------------|
|-------6-5--7----6----|
|-5-4----------5----5-4|

Gtr. 1. 1,3,5,7                        2,4,6                    8
|---------------|----------------------------|-------------------|
|---------------|----------------------------|-------------------|
|---------------|----------------------------|-------------------|
|---------2h5-4\|----------------------------|-------------------|
|-----2---------|----------------------------|---------2--------1|
|-222---2-------|-000-000-2-000-000-1-000-000|-000-000-2--------1|
  ...   .         ... ...   ... ...   ... ...  ... ...

Gtr. 2 (I'm like 90% sure on this.)
         1,3,5,7                       2,4,6                    8
|---------------|----------------------------|-------------------|
|---------------|----------------------------|-------------------|
|---------------|----------------------------|-------------------|
|---------------|----------------------------|-------------------|
|---------------|----------------------------|---------2--------1|
|-222-----------|-000-000-2-000-000-1-000-000|-000-000-2--------1|
  ...             ... ...   ... ...   ... ...  ... ...

Both Gtrs.
|------------------------------------------|
|------------------------------------------|
|------------------------------------------|
|------------------------------------------|
|-7p3---3---3-2---7---7-6---10---10-9------|
|-----2---2-----2---0-----0----0------0-10\|
      .   .     .   .     .    .      .

Both Gtrs.
|----------------|
|----------------|
|----------------|
|-7--------------|
|---8---8---8-7-4|
|-----0---0------|
      .   .

Both Gtrs.
|-----------------------------------------------------------------|
|-----------------------------------------------------------------|
|-----------------------------------------------------------------|
|-7-----------------------7---------------------------------------|
|---8---8---8-7-4-----------8---8---8-7-4-----0h4h7-4---4---4-7-5-|
|-----0---0-------0-0-0-0-----0---0-------0-0---------0---0-------|
      .   .       . . . .     .   .       . .         .   .
|------------------------------------------------------------------|
|------------------------------------------------------------------|
|------------------------------------------------------------------|
|---------7-----------------------7-----------------------7--------|
|---5---5---8---8---8-7-4-----5h8---8---8---8-7-4-----------8---8--|
|-0---0-------0---0-------0-0---------0---0-------0-0-0-0-----0----|
  .   .       .   .       . .         .   .       . . . .     .
|----------------------------------------|
|----------------------------------------| x1
|----------------------------------------|
|----------------------------------------|
|---8-7-4-----0h4h7-4---4---4-7-5---5---5|
|-0-------0-0---------0---0-------0---0--|
  .       . .         .   .       .   .

Both Gtrs.
|-------------------------------------------------------------|
|-------------------------------------------------------------| x3
|-------------------------------------------------------------|
|-------------------------------------------------------------|
|-5-----------------------5-----------------5---5-4---8---8-7\|
|---8-0-8-0-8-7-4-0-0-0-0---8-0-8-0-8-7-4-0---0-----0---0-----|
      .   .       . . . .     .   .       .   .     .   .

Gtr. 2 plays this 2nd and 3rd times.
|----------------------------------------------------------------|
|----------------------------------------------------------------|
|----------------------------------------------------------------|
|----------------------------------------------------------------|
|-5-----------------------5-----------------8---8-7---11---11-10\|
|---8-0-8-0-8-7-4-0-0-0-0---8-0-8-0-8-7-4-0---0-----0----0-------|
      .   .       . . . .     .   .       .   .     .    .

Gtr. 1
                     1,3                       2                     4
|------------------------|-----------------------|---------------------| x4
|------------------------|-----------------------|---------------------|
|-4-----4-----3----------|-----------------------|3-----3-----2---2---2|
|-----------------4------|5-----5-----5---4---8--|---------------------|
|---2-2---2-2---2---2-5-2|-----------------------|--1-1---1-1---1---1--|
|------------------------|--5-5---5-5---5---5---5|---------------------|
    . .   . .   .   .   .   . .   . .   .   .   .   . .   . .   .   .

Gtr. 2
|--------------------------|
|--------------------------|
|--------------------------|
|-4-----------5-----------5|
|-2-----------3---4---1---3|
|-----------------4---1----|
|             .   .   .
|
|------------------------|---------------------|
|------------------------|---------------------|
|-4-----4-----3----------|-3-----3----2---2---2|
|-----------------4------|---------------------|
|---2-2---2-2---2---2-5-2|---1-1---1-1--1---1--|
|------------------------|---------------------|
    . .   . .   .   .   .    . .   . .  .   .

Gtr 2 plays this 2 and 4th times.
                      1,3                        2                     4
|------------------------|------------------------|---------------------|
|------------------------|------------------------|---------------------|
|-7-----7-----6----------|------------------------|6-----6-----5---5---5|
|-----------------7------|8-----8-----8---7---11--|---------------------|
|---5-5---5-5---5---5-8-5|------------------------|--4-4---4-4---4---4--|
|------------------------|--8-8---8-8---8---8----8|---------------------|
    . .   . .   .   .   .   . .   . .   .   .    .   . .   . .   .   .

Instead of playing the last bar of the last measure of the last riff the last time you 
the last riff...Play this.
|--------------|
|--------------|
|--------------|
|-5-----4------|
|-3-5-2-2-4-1-2|
|---5-2---4-1-2|
    . .   . .

That's it! It's extremely close but I know it's not exact...Let me know if you've got 
corrections, I'd be glad to fix them. This was my first tab... It took a long time...
Tap to rate this tab
# A B C D E F G H I J K L M N O P Q R S T U V W X Y Z