Song name
# A B C D E F G H I J K L M N O P Q R S T U V W X Y Z

Jocelyn Enriquez - Do You Miss Me tab

----------------------------------------------
    “Do you miss me” - Jocelyn Enriquez
  http://www.youtube.com/watch?v=BcaHyyR3me8
----------------------------------------------
Tabbed by: Justin Riray
Youtube:   http://www.youtube.com/JustinRiray
Facebook:  http://www.facebook.com/riray

Tuning: Standard (EADGBe)

     INTRO               VERSE
e|-2-2-2--2-2-2-2--------2>---2>---|
B|-3-3-3--3-3-3-3--------3>---3>---|
G|-4-4-4--4-4-4-4--------4>---2>---|
D|-4-4-4--4-4-4-4--------4>---0>---|
A|-2-2-2--0-2-2-2--------2>---0>---|
E|---------------------------------|

     CHORUS
e|--3--0--2-(0)-2----3--0--2--0----|
B|--3--2--3-(2)-3----3--2--3--2----|
G|--0--2--2-(2)-4----0--2--4--2----|
D|--0--2--0-(2)-4----0--2--4--2----|
A|--2--0--0-(0)-2----2--0--2--0----|
E|--3----------------3-------------| 

e|--3--0--2-(0)-2----3--0--2-------|
B|--3--2--3-(2)-3----3--2--3-------|
G|--0--2--2-(2)-4----0--2--2-------|
D|--0--2--0-(2)-4----0--2--0-------|
A|--2--0--0-(0)-2----2--0--0-------|
E|--3----------------3-------------|

     BRIDGE techno solo
e|----------------------------|
B|----------------------------|
G|----------------------------|
D|-----0--2--------0-2-0------|
A|-2-2------0--2-2-------2-0--|
E|----------------------------|
Tap to rate this tab
 
# A B C D E F G H I J K L M N O P Q R S T U V W X Y Z