Joddla Med Siv - Djuren I Buren tab

Djuren I Buren - Joddla med siv

Tabbed By Conny Lundquist

intro/vers

G        D   C     G         D   C
------------------|---------------------|
------------------|---------------------|
----------7--5-5--|-----------4--2-2----|
---------5-5--3-3-|----------5-5--3-3---|
--2-2-2-2---------|--2-2-2-2------------|
-3-3-3-3----------|-3-3-3-3-------------|


Nuuu e de illa.....
-----------------------------------|
-----------------------------------|
-----------------------------------|
-------------------5-5-5-5-7-7-7-7-|
--2-2-2-2-5-5-5-5-3-3-3-3-5-5-5-5--|
-0-0-0-0-3-3-3-3-------------------|

stackars gorilla.....
-----------------------------------|
-----------------------------------|
-----------------------------------|
-------------------5-5-5-5-7-7-5-5-|
--2-2-2-2-5-5-5-5-3-3-3-3--5-5-3-3-|
-0-0-0-0-3-3-3-3-------------------|

Solo spela 2 ggr
----------------------------|--------------------------------|
----------------------------|--------------------------------|
----------------------------|--------------------------------|
-10-9-7-9------9-9----7-----|-10-10-10-9-9-10-12-10-9-7------|
----------10-5-----10---9-5-|---------------------------9-5--|
----------------------------|--------------------------------|

Em                            D
Tank om den vite mannen inte fanns
C                        G          D
Da skulle alla djungler haft en battre chans
Em                             D
Dom vite mannen bar sej at som svin
C                       G      D
Tog hela djungeln pa en dag me sin maskin
A                    Em
Vem ska nu mata alla djur ida'?
A                   D         C   D
Hemma e vite mannen fet o gla
Tap to rate this tab
 
# A B C D E F G H I J K L M N O P Q R S T U V W X Y Z