Song name
# A B C D E F G H I J K L M N O P Q R S T U V W X Y Z

Joe Bonamassa - Asking Around For You tab

----------------------------------------------------------------------------
	          Asking around for you - Joe Bonamassa
----------------------------------------------------------------------------

Tabbed by:-jules-
Email:

Tuning:eBGDAE (standard)         


half  full        full                full               full
                                                                    and hold
e|----------------------7--9-----------------------------------------------|
B|------8--10b---10b~--------10br--8~~------------13br--11---------12-14b--|
G|7--9------------------------------------12--12-----------12~~-14---------|
D|-------------------------------------------------------------------------|
A|-------------------------------------------------------------------------|
E|-------------------------------------------------------------------------|
                                                        full
e|----------------------------------15----------------1518b~~--15----------|
B|------12-----15----------12-15-12---------------1518------------18-------|
G|12-12-----------------12-------------12~~--------------------------------|
D|-------------------------------------------------------------------------|
A|------------------------------------------------------------------/15-13-|
E|-------------------------------------------------------------------------|
                                                         (quarter)
e|-------------------------------------------------------------------------|
B|-------------------------------------------------------------------------|
G|---------12~~----10---------------10--------------------10-(b)-----------|
D|--------------------12-10~--10-8-----10-8h10p8-------------------12~~----|
A|10~--------------------------------------------10~~----------------------|
E|-------------------------------------------------------------------------|
Tap to rate this tab
# A B C D E F G H I J K L M N O P Q R S T U V W X Y Z