Song name
# A B C D E F G H I J K L M N O P Q R S T U V W X Y Z

Joe Bonamassa - India Mountain Time tab

Help us improve GuitareTab! Take a short survey!
-------------------------------------------------------------------------------
			     India / Mountain Time - Joe Bonamassa
-------------------------------------------------------------------------------
Tabbed by:AndyT
Email: andrew@norvil.net

Tuning: STANDARD

note: (the Bm/G)  I can't find anything like that on all the chords tab but Bm/G is close enough
       D              G              C              Bm/G 
e|--------------2-------------------------------------------------------------|
B|-----------3-----3---3-----------3-----------------1-------------------3----|
G|--------2----------2----------0-----0-----------0-----0---0---------0----0--|
D|-----0---------------------0----------0------2----------2-------0-----------|
A|-----------------------------------------023-----------------2--------------|
E|------------------------3---------------------------------------------------|
                                    (hammer on these)   

       D              G              C              Bm/G 
e|--------------2-------------------------------------------------------------|
B|-----------3-----3---3-----------3-----------------1-------------------3----|
G|--------2----------2----------0-----0-----------0-----0---0---------0----0--|
D|-----0---------------------0----------0------2----------2-------0-----------|
A|-----------------------------------------023-----------------2--------------|
E|------------------------3---------------------------------------------------|

D                        G
You drive West on 80 and it wont take too long,

C                                   Bm/G
Til the road starts climbing up to mountain time.

D                            G
Theres a girl I know there, she lives free and easy,

C                                Bm/G
And she shows me wonders and she takes my mind.

D                            G
C                            Bm/G

D                            G
C                            Bm/G

D
And shes wild as eagles,

G
Shes as sweet as honeysuckle,

C                         Bm/G
Her lifes flowing like a mountain stream.

D
And she takes me somewhere,

G
And its good to be there,

C                         Bm/G
And she pulls me into her bright golden wing.

D                            G
C                            Bm/G

D                            G
C                            Bm/G

D                         G
Now I hate the city and I love the country,

C                               Bm/G
And I love that feeling on that mountain high.

D                         G
And that girl is waiting, but she wont wait too long,

C                            Bm/G
So I drive all night to that clear blue sky.

D                            G
C                            Bm/G

D                            G
C                            Bm/G

D
And shes wild as eagles,

G
Shes as sweet as honeysuckle,

C                         Bm/G
Her lifes flowing like a mountain stream.

D
And she takes me somewhere,

G
And its good to be there,

C                         Bm/G
And she pulls me into her bright golden wing.

D                            G
C                            Bm/G

D                            G
C                            Bm/G

D                                 C
I can feel it in the wind blow

                            D
I can feel love flow

                          C
And Ill be there when the morning comes, yeah.

D                            G
C                            Bm/G

D                            G
C                            Bm/G

(Lead Break)



D
Bright Golden Wing
Related for India Mountain Time tab