Guitaretab - guitar tabs
Song name
# A B C D E F G H I J K L M N O P Q R S T U V W X Y Z

Joe Bonamassa - The Ballad Of John Henry tab

 Joe Bonamassa
The Ballad Of John Henry

Note: It is pretty similar to the Guitar Pro Tab by Pieterjan but in an other key. So
are able to play with a dropped D Tunig. The song is quiet easy to play but you have
to it for the repeats. The order is shown at the end of the tab. The solo is missing but 
rate this tab an the guitar pro one by Pieterjan.


  Main Riff
      E  E  S S E   Q    S S E     E  E  S S E  Q    Q
E||-----------------------------| --------------------------|
B||-----------------------------| --------------------------|
G||-----------------------------| --------------------------|
D||----------------/7-----------| --------------------------|
A||------5--3-5----/8----5-3-5--| -----5--3-5----3----5-----|
D||---0---------0---------------| --0---------0--3----5-----|


      E  S E  E  S E  S E  E  S    E  E  S E  S Q    Q
E||-----------------------------|--------------------------|
B||--------3------------3-------|--------3-----------------|
G||------2----2--2----2----2----|-----2----2---------------|
D||---------------------------0-|-------------0------------|
A||-----------------------------|---------------3----5-----|
D||---0------------0------------|--0------------3----5-----|
[ Tab from: http://www.guitaretab.com/j/joe-bonamassa/181363.html ]
Bridge
     E  E  E  E  E  E   E.  S
E||---------------------------|
B||---------------------------|
G||---------------------------|
D||--9--9--9--9--9--9--10---9-|
A||--9--9--9--9--9--9--10---9-|
D||--7--7--7--7--7--7---8---7-|

      S S E  H         Q
E||---------------------------||
B||---------------------------||
G||-------------------1g2-----||
D||--10-9-7--7--------2g3-----||
A||--10-9-7--7----------------||
D||---8-7-5--5----------------||


End Brideriff with ;

     S S E  H        Q       W
E||------------------------|-------------------|
B||------------------------|-------------------|
G||-------------------2----|-------------------|
D||--10-9-7--7--------3----|-------------------|
A||--10-9-7--7-------------|-------------------|
D||---8-7-5--5-------------|--0----------------|


Outro


    S E.  S E.  S E.  S E.     S E.  S E.  S E.  S E.      H        H
E||--------------------------|--------------------------|--------------------||
B||--------------------------|--------------------------|--------------------||
G||--------------------------|--------------------------|--------------------||
D||--------------------------|--------------------------|--0-----------------||
A||--3-----3-----3-----3-----|--2-----2-----1-----1-----|--0-----------------||
D||----3-----3-----3-----3---|----2-----2-----1-----1---|--0-----------------||


Order:

Main Riff 1

Main Riff 2

Main Riff 1

Main Riff 2

Main Riff 1

Bridge

Solo

Main Riff 2

Main Riff 1

Outro
Related for The Ballad Of John Henry tab
Advertisement will be closed in 10 seconds