Song name
# A B C D E F G H I J K L M N O P Q R S T U V W X Y Z

Joe Bonamassa - Stop tab

-------------------------------------------------------------------------------
			     Stop! - Joe Bonamassa
-------------------------------------------------------------------------------
Tabbed by: Henry Walter ( Bonamazing )
Any queries email: henry_walter@live.com

IN NO WAY AM I SAYING I OWN ANY RIGHTS TO JOE BONAMASSA'S MUSIC. I AM MERELY A VERY BIG FAN.

Stop! is one of my favourites of Joe Bonamassa and i haven't seen any tabs for it so i 
i would post mine! errrrr this is my first tab so please be kind!

i have only got the intro but will post the solos soon.

Tab Legend
************************************

| /   slide up
| \   slide down
| h   hammer-on
| p   pull-off
| ~   vibrato
| +   harmonic
| x   Mute note
| b   Bend
| fb  Full Bend
| pb  Pre-bend
| br  Bend release
| pbr Pre-bend release
| brb Bend release bend

************************************

Tuning: Standard

e|-10fb-10-7h-10p-7--7---------7h-9---5--5----------7-----------------------|
B|----------------------10-10---------5----5--------7-----------------------|
G|-------------------------------------------7/-9------9p-7p-6--------------|
D|---------------------------------------------------------------7/-11-9-7--|
A|--------------------------------------------------------------------------|
E|--------------------------------------------------------------------------|

e|--------------12h-14--12h-14----------12----------------14----|
B|-14br-p-12-------------------------12----------------14-------|
G|-----------14----------------*9h-11---------*-12h-14----------|
D|--------------------------------------------------------------|
A|--------------------------------------------------------------|
E|--------------------------------------------------------------|

*(these are basically sweeped)

e|---------14--17fb-17-14-15-12-14-10-12-12fb-p-10--------------------|
B|------14----------------------------------------12-12---------------|
G|-*-15---------------------------------------------------------------|
D|--------------------------------------------------------------------|
A|--------------------------------------------------------------------|
E|--------------------------------------------------------------------|

Hope it helps!
Tap to rate this tab
 
# A B C D E F G H I J K L M N O P Q R S T U V W X Y Z