Song name
# A B C D E F G H I J K L M N O P Q R S T U V W X Y Z

Joe Bonamassa - The Ballad Of John Henry tab

Tuning - C F A# D# G C (standard tuning dropped down three whole steps)

Intro/Chorus

--------------0-------------------0---0-----|
--------------0-------------------0---0-----|
--------------4-------------------4---6-----|
--------------5-------------------5---7-----|
---7--7p5h7---5---7p5h7---7p5h7---5---7-----|
-0----------0-x---------0-------0-x---x-----|

Verse (Acoustic Guitar)

---3--3--3--3--3----3--3--3---3--0----------|
----5--5--5--5--5----5--5--5-----3b4--------|
-----4--4--4--4-------4--4--4---------------|
-2----------------2-------------------------|
--------------------------------------------|
--------------------------------------------| x4

Bridge (Power Chords)

------------------------------------------------|
------------------------------------------------|
------------------------------------------------|
--999999-10/9/10/9--77--------------------------|
--999999-10/9/10/9--77--------------------------|
--777777--8/7/-8/7--55--------------------------| x4

End on: 0 2 2 x x x

[Solo]

That's pretty much it. Can't be bothered to tab out the solo seeing as I can't play slide.
Tap to rate this tab
 
# A B C D E F G H I J K L M N O P Q R S T U V W X Y Z