Song name
# A B C D E F G H I J K L M N O P Q R S T U V W X Y Z

Joe Bonamassa - The Ballad Of John Henry tab

Hello guys this is my guitar tab for The Ballad Of John Henry.
Tuning: e-
        b-
        g-
        d-
        a-
        e-

(1)        (Guitar-Electric)                                      
e|-----|----------------------------------------------------|
b|-----|----------------------------------------------------|
g|-----|----------------------------------------------------|    x6
d|-----|--------------7-------------------------------------|
a|-----|--------------5--------------------------8--10------|
e|-0---|---0-7-5-7-0-----7-5-7---0-7-5-7-0-------8--10------|
(2)
e|----------------------------------------------------------|
b|----------------------------------------------------------|
g|-----7-----7-----7-----7-----7-----7-----7----------------|    x4
d|-------9-----9-----9-----9-----9-----9-----9---7/9--------|
a|----------------------------------------------------------|
e|---7-----7-----7-----7-----7-----7-----7------------------|
(3)
e|----------------------------------------------------------| 
b|----------------------------------------------------------|
g|----------------------------------------------------------|    x4
d|--999999-10/9/10/9--77-777--------------------------------|
a|--999999-10/9/10/9--77-777--------------------------------|
e|--777777--8/7/-8/7--55-555--------------------------------| 
(4)
e|----------------------------------------------------------|
b|----------------------------------------------------------|
g|----------------------------------------------------------|    x1  
d|--999999-10/9/10/9--77------------------------------------|
a|--999999-10/9/10/9--77------------------------------------|
e|--777777--8/7/-8/7--55------------------------------------| 


 The right order is : 1-2-1-2-1-3-4-(Solo)-2-1-1
Tap to rate this tab
 
# A B C D E F G H I J K L M N O P Q R S T U V W X Y Z