Song name
# A B C D E F G H I J K L M N O P Q R S T U V W X Y Z

Joe Bonamassa - Black Lung Heartache tab

This is just the main riff and first short solo which I worked out by ear as I couldn't 
find a tab elsewhere.  It needs a few more hammer-on and slides into and out of some 
notes which I don't really know how to tab, but these are the basic notes you 
need.  Hope it helps!


Drop the bottom E down to C

|----------------------------------------|
|----------------------------------------|
|----------------------------------------|
|-----5-5-5------------------------------|
|-----3-3-3-3-1------3-------------------|
|---0-----------5-3---0------------------|


First solo

|----------------------------------------|
|------16-15-13----13-------13-15-13-----|
|---12----------15----12-15--------------|
|----------------------------------------|
|----------------------------------------|
|----------------------------------------|

|----------------------------------------|
|------16-15-13----13--------------------|
|---12----------15----15-12----15-12-----|
|---------------------------15-----------|
|----------------------------------------|
|----------------------------------------|

|-----------------------18---------------|
|---(18)20-(18)20-18-20----20-18-16------|
|-----------------------------------17---|
|----------------------------------------|
|----------------------------------------|
|----------------------------------------|

|----------------------18-20-15-13-15-13----------|
|----------------18-20-------------------16-15-13-|
|----------17-20----------------------------------|
|----17-20----------------------------------------|
|-20----------------------------------------------|
|-------------------------------------------------|
Tap to rate this tab
 
# A B C D E F G H I J K L M N O P Q R S T U V W X Y Z