Song name
# A B C D E F G H I J K L M N O P Q R S T U V W X Y Z

Joe Bonamassa - Driving Towards The Daylight tab

  
 Driving Towards The Daylight - Joe Bonamassa
-------------------------------------------------------------------------------
Tabbed by:Ukie1
E-mail:

Tuning:Standard with capo first fret

e|--------------4-4-4---3-3-3---4-4-4----------------------------------------|intro & verse
B|----6-6-6-6---4-4-4---4-4-4---4-4-4----------------------------------------|
G|----5-5-5-5---0-0-0---3-3-3---0-0-0----------------------------------------|
D|-0--3-3-3-3---0-0-0---0-0-0---3-3-3----------------------------------------|
A|-0--3---3-3---3-3-3-----------4-4-4----------------------------------------|
E|--------------4-4-4--------------------------------------------------------|

e|---------------------------------------------------------------------------|played during 2nd time
B|---------------------------------------------------------------------------|
G|---------------------------------------------------------------------------|of intro.
D|------5--6---6--5----------------------------------------------------------|
A|-6--8--------------8--6----------------------------------------------------|
E|-------------------------6--8--4-------------------------------------------|

e|---------------------------------------------------------------------------|chorus
B|---------------------------------------------------------------------------|
G|-8--10-10---------8------8--6-6-6------------------------------------------|
D|-8--10-10--6-6-6--8------8--6-6-6------------------------------------------|
A|-6--8--8---6-6-6--6-8-10----4-4-4------------------------------------------|
E|-----------4-4-4-----------------------------------------------------------|

e|---------------------------------------------------------------------------|Bridge
B|---------------------------------------------------------------------------|
G|---------------10----------------6----------------8------------------------|
D|------------3--10-------------3--6-------------3--8-8----------------------|
A|-------2--3----8---------2--3----4--------2--3----6-8----------------------|
E|-0--4--------------0--4-------------0--4------------6----------------------|
Tap to rate this tab
# A B C D E F G H I J K L M N O P Q R S T U V W X Y Z