Song name
# A B C D E F G H I J K L M N O P Q R S T U V W X Y Z

Joe Bonamassa - Lonely Town Lonely Street tab

Lonely Town Lonely Street   written by Bill Withers
version by Joe Bonamassa

Tabbed by Andrew Gerber

standard tuning
  Riff 1                      Riff 2
E]------------------------------------------------|
B]------------------------------------------------|
G]------------------------------------------------|
D]---4-4-0-4--------------------------------------|
A]---2-2---2------------------4-4-0-4-------------|
E]----------------------------2-2---2-------------|

  Riff 3
E]------------------------------------------------|
B]------------------------------------------------|
G]------------------------------------------------|
D]------------0-----------------------------------|
A]--2-2-0h2-0---2-2-0h2-0-2-----------------------|
E]------------------------------------------------|


intro  Riff 1 repeated

Riff 1 repeated
You can live your life in a crowded city
You can walk along a crowded street

Riff 2 repeated
But the city really ain't no bigger than the friendly
People, friendly people that you meet

Riff 3 repeated
Friendly people that you meet

Riff 1 repeated
You might be a sweet young, sweet young pretty pretty
And at the dances you can't keep your seat

Riff 2
But if dances don't lead to romances
You might as well be born, born with two left feet

Riff 3 repeated
be born with two left feet

guitar solo---Good Luck!

follow same above riffs for below lyrics

You might be a sweet toned sure nuff high-class talker
You might be a stone, stone expert at kissing
But it don't do too much good to be talkin
Brother, when there ain't no, ain't nobody lis-nin
ain't nobody lis-nin
And if you are shy, just not much of a talker
Don't impress the people that you meet
You might as well be a lonely walker in a lonley town, on a lonely street
on a lonely street

Riff 1 to end of song
Tap to rate this tab
# A B C D E F G H I J K L M N O P Q R S T U V W X Y Z