Song name
# A B C D E F G H I J K L M N O P Q R S T U V W X Y Z

Joe Bonamassa - So Its Like That tab

(/) Slide Up  (\) Slide Down  (h) Hammer On  (p) Pull Off  (b) Bend (r) Release (v) Vibrato

E|-----------------------------------------------------------------------------|
B|-----------------------------------------------------------------------------|
G|-----------------------------------------------------------------------9--7--|
D|--------------7--7--9--9--------------7-----7--9--9--------------7--7--9--7--|
A|--------9--9--------------------9--9-----9-----------------9--9--------------|
E|--7--7--------------------7--7-----------------------7--7--------------------|



E|-----------------------------------------------------------------------------|
B|-----------------------------------------------------------------------------|
G|-----------------------------------------------------------------------9--7--|
D|--------------7--7--9--9--------------7-----7--9--9--------------7--7--9--7--|
A|--------9--9--------------------9--9-----9-----------------9--9--------------|
E|--7--7--------------------7--7-----------------------7--7--------------------|



E|--------------------------------------------------------------------------------------|
B|--------------------------------------------------------------------------------------|
G|--9-10--9-----------------------------------------------------------------------9--7--|
D|--9/10--9--------------7--7--9--9--------------7-----7--9--9--------------7--7--9--7--|
A|-----------------9--9--------------------9--9-----9-----------------9--9--------------|
E|-----------7--7--------------------7--7-----------------------7--7--------------------|



E|----------------------------------------------------------------------------------|
B|----------------------------------------------------------------------------------|
G|------------------12--10--12--10--------------------9--7--------3--3--2--2--3--3--|
D|------------------12--10--12--10--------------7--7--9--7--------4--4--3--3--4--4--|
A|----------12--12------------------------9--9--------------------------------------|
E|--10--10----------------------7---7--7--------------------3--3--------------------|



E|--------7--------7--------7--------------------------|
B|--------7--------7--------7--------------------------|
G|--9b10-----9b10-----9b10-----9b10--9--7--9--7--------|
D|-----------------------------------------------9--7--|
A|-----------------------------------------------------|
E|-----------------------------------------------------|



E|----------------------------------------------------------------------------------|
B|----------------------------------------------------------------------------------|
G|------------------------------------------12--10--12--10--------------------9--7--|
D|--------------7--7--9--9------------------12--10--12--10--------------7--7--9--7--|
A|--------9--9----------------------12--12------------------------9--9--------------|
E|--7--7--------------------10--10--------------------------7--7--------------------|



E|--------------------------|
B|--------------------------|
G|--------3--3--2--2--3--3--|
D|--------4--4--3--3--4--4--|
A|--------------------------|
E|--3--3--------------------|
 
E|--------------------------------------------------------------------------------------------|
B|--------------------------------------------------------------------------------------------|
G|--9--7--9-10--9-----------------------9--7--------------------9--7--------------------9--7--|
D|--9--7--9/10--9-----------------7--7--9--7--------------7--7--9--7--------------7--7--9--7--|
A|--------------------------9--9--------------------9--9--------------------9--9--------------|
E|-----------------7--7--7--------------------7--7--------------------7--7--------------------|



E|----------------------------------------------------------------------------------|
B|----------------------------------------------------------------------------------|
G|------------------------------------------12--10--12--10--------------------------|
D|--------------7--7--9--9------------------12--10--12--10--------------7--7--9--9--|
A|--------9--9----------------------12--12------------------------9--9--------------|
E|--7--7--------------------10--10--------------------------7--7--------------------|



E|--------------------------|
B|--------------------------|
G|--------3--3--2--2--3--3--|
D|--------4--4--3--3--4--4--|
A|--------------------------|
E|--3--3--------------------|
                                                        http://www.guitartabcreator.com
Tap to rate this tab
 
# A B C D E F G H I J K L M N O P Q R S T U V W X Y Z