Song name
# A B C D E F G H I J K L M N O P Q R S T U V W X Y Z

Joe Bonamassa - Steal Your Heart Away tab

-------------------------------------------------------------------------------
           Steal Your Heart Away - Joe Bonamassa
                       (Black Rock Version)
-------------------------------------------------------------------------------
Tabbed by:A.J.P
E-mail:a.j.p.brennan@hotmail.com

Tuning: Standard. The song looks like a F# Major. Lots of Ab minors
and Eb minor and a B major. Had a look on YouTube to see if it was just tuned 
down. Nope. Standard tuning. This is done as if your a lone guitar player in a 
band, as he has done live. The solo is from the album.

INTRO
e|---------------------------        -------------------------------------|
B|---------------------------       -------------------6------------------|
G|---------------------------       -------------------7------------------|
D|-------4------------------- X3     ------------------6------------------|
A|----------6-4-----4---2----       -------------------8------------------|
E|-4-5-6-------4-6---4---2---       --1~~~~------------6------------------|

VERSE INTRO
e|------------------------------|
B|------7--7--7--6--7--7--7--7--|
G|------8--8--8--6--8--8--8--8--|
D|-6/8--8--8--8--6--8--8--8--8--|
A|-4/6--6--6--6--6--6--6--6--6--|
E|------------------------------|

VERSE
e|-------------------------------|
B|-6--7--7--7--7--6--7--7--7--7--|
G|-6--8--8--8--8--6--8--8--8--8--|
D|-6--8--8--8--8--6--8--8--8--8--|
A|-6--6--6--6--6--6--6--6--6--6--|
E|-------------------------------|

PRE CHORUS
e|-------------------------------------------------|
B|---4-4-4-4-4-4-4-4-4-4-4-4-4-4-4-4-4-4-4-4-4-4-4-|
G|---4-4-4-4-4-4-4-4-4-4-4-4-4-4-4-4-4-4-4-4-4-4-4-|
D|---6-6-6-6-6-6-6-6-6-6-6-6-6-6-6-6-6-6-6-6-6-6-6-|
A|---6-6-6-6-6-6-6-6-6-6-6-6-6-6-6-6-6-6-6-6-6-6-6-|
E|-6-4-4-4-4-4-4-4-4-4-4-4-4-4-4-4-4-4-4-4-4-4-4-4-|

e|------------------------------|
B|------7--7--7--6--7--7--7--7--|
G|------8--8--8--6--8--8--8--8--|
D|-6/8--8--8--8--6--8--8--8--8--|
A|-4/6--6--6--6--6--6--6--6--6--|
E|------------------------------|

e|-------------------------------------------------------------------|
B|---------------------------------------------7--7--------7---------|
G|---------------------------------------------8--8--------8---------|
D|--6------------------------------------------8--8--------8---6-7-8~|
A|--6------------------------------------------6--6--------6--9------|
E|--6-7-7-7-7-7-7-7-7-7-7-7-7-7-7-7-7-7-7-6~~~------6-7-6------------|


SOLO
e|------------------------------------------6-9-6-9-6\5-------------|
B|---------------------------------------7--------------------------|
G|------------------------------------/8-------------------6b(8)----|
D|------------------------------------------------------------------|
A|-66666666666666666666-6~------------------------------------------|
E|------------------------------------------------------------------|

e|--16b----14-13-11----13-11-------11----------------------------------------|
B|--16b-------------14-------14-11----14-11-----14-11------------------------|
G|--------------------------------------------13--------13br-p11-------------|
D|---------------------------------------------------------------13-11-------|
A|---------------------------------------------------------------------------|
E|---------------------------------------------------------------------------|
                  While keeping trill going, create Harmonic by sliding 
                palm along string from bridge to neck.
e|---------------------------------------------------------------------------|
B|--------------------------------------------------------19b21--19b21~~~----|
G|-----------------6h8p6h8p6h8p6h8p6h8p6-------------------------------------|
D|---------------------------------------------------------------------------|
A|--13\11-9------------------------------------------------------------------|
E|-----------11--------------------------------------------------------------|

e|-16-------------------16--19-18-16----18-16-------16-----------------------|
B|----19p-16----16-19----------------19-------19-18----19-16---19-16---------|
G|------------18---------------------------------------------18------18-15---|
D|---------------------------------------------------------------------------|
A|---------------------------------------------------------------------------|
E|---------------------------------------------------------------------------|

e|--------------------------------------------------11-14-13-11---13-11-----|
B|-16-14-------------------------------11h14--11h14------------14-----14-11-|
G|-------15-15\13-11-----13----11-13--------13------------------------------|
D|--------------------13-13-13-13-------------------------------------------|
A|--------------------------------------------------------------------------|
E|--------------------------------------------------------------------------|

e|-11---------------------------------------------------------------------|
B|---14p11----------------------------------------------------------------|
G|---------14\13-11--------------------------8--11+8+11+8+11+8+11+-11br13-|
D|------------------13-11---------------8-11------------------------------|
A|------------------------13\11-9-----------------------------------------|
E|---------------------------------11-------------------------------------|

e|-------------------------------------------11-13-14-16-14-16-18-16-18-19-|
B|------------------------------------14b16--------------------------------|
G|-6-8-6-------------------------------------------------------------------|
D|--------8-7-6---6h7p6----------------------------------------------------|
A|--------------9--------9-6~~---------------------------------------------|
E|-------------------------------------------------------------------------|

e|-18-19-21-18-19-21b23-21-19-18-16-19-18-16----18--------------------------|
B|-------------------------------------------------19---19-18-16-19-18-16-14|
G|--------------------------------------------------------------------------|
D|--------------------------------------------------------------------------|
A|--------------------------------------------------------------------------|
E|--------------------------------------------------------------------------|

e|---------------------------11----------------------------------------16b-|
B|-------------------------11-----------------------------------16---------|
G|-15\13-11---13---11-13b14-----pb13--11---11-13---11---------15--15-------|
D|----------13---13----------------------13------13---13~~-----------------|
A|-------------------------------------------------------------------------|
E|-------------------------------------------------------------------------|

e|-11-----------------------------------------11br--------------------------|
B|---11----14-11--------------------------11--------------------------------|
G|------13-------13-11br--------------11----------------11\-----------------|
D|-----------------------13--------12-------------------11\-----------------|
A|------------------------------13----------------------11\-----------------|
E|--------------------------------------------------------------------------|


************************************

| /   slide up
| \   slide down
| h   hammer-on
| p   pull-off
| ~   vibrato
| +   harmonic
| x   Mute note
| b   Bend
| pb  Pre-bend
| br  Bend release
| pbr Pre-bend release
| brb Bend release bend

************************************

Tap to rate this tab
# A B C D E F G H I J K L M N O P Q R S T U V W X Y Z