Song name
# A B C D E F G H I J K L M N O P Q R S T U V W X Y Z

Joe Bonamassa - Jelly Roll tab

-------------------------------------------------------------------------------
                             JELLY ROLL (ACOUSTIC) - Joe Bonamassa
-------------------------------------------------------------------------------
Tabbed by: Doug Koehler
E-mail:

Tuning: EADGBE (Capo on 3rd fret). Fret numbers are relative to the capo.

This is the version from An Acoustic Evening At The Vienna Opera House


Intro 1: (Repeat 4x)
e|---------------------------------------------------------------0---------|
B|---------------------------------------------------------0--3-----3--0---|
G|-(2)---2--0--------0--------------2-------2--0--------0------------------|
D|-(2)---------4--------2--0----------------------4------------------------|
A|--0-------------0-----------3--0-----0-------------0---------------------|
E|-------------------------------------------------------------------------|

Intro 2:
e|-------2--------2--------2--------2--------2--------2--------2-------------|
B|----------3--------3--------3--------3--------3--------3--------3----------|
G|-------------2--------2--------2--------2--------2--------2--------2-------|
D|--0-------------------------------------------------------------------0----|
A|---------------------------------------------------------------------------|
E|---------------------------------------------------------------------------|

e|-----------------------------------------------------0----2----3----2------|
B|-----------------------------------------------------0----3----3----3------|
G|-------2--0--------0--------------2-------2--0--2----1----2----0----2------|
D|-------------4--------2--0----------------------2----2----0----0----0------|
A|--0-------------0-----------3--0-----0----------0----2---------2-----------|
E|---------------------------------------------------------------3-----------|

e|---------------------------------------------------------------------------|
B|---------------------------------------------------------------------------|
G|-------2--0--------0--------------2-------2--0--2--------------------------|
D|-------------4--------2--0----------------------2--------------------------|
A|--0-------------0-----------3--0-----0----------0--------------------------|
E|---------------------------------------------------------------------------|
Tap to rate this tab
# A B C D E F G H I J K L M N O P Q R S T U V W X Y Z