Song name
# A B C D E F G H I J K L M N O P Q R S T U V W X Y Z

Joe Bonamassa - Waiting For Me tab

Joe Bonamassa
"Waiting For Me"
Tabbed by: Holt Barnitz

Standard Tuning
Capo 3rd Fret

Intro:

E|-----------------0------1-----0--------|
B|------1---1--1-------1-----1-----1-----|
G|--0h2---3------------------------------|
D|---------------------------------------|
A|---------------------------------------|
E|---------------------------------------|

Verses, Chorus:
Strum Chords

E|-3------3------3------3--------------------|
B|-3------3------3------3--------------------|
G|-2------0------2------0--------------------|
D|-0------2------0------0--------------------|
A|-2------3------0------2--------------------|
E|-0------0------2------3--------------------|


Here you go, it may not be perfect, but it gives you an idea.  
The chords may sound better without the capo, but then the intro would change
EVERYONE LOOKIN AT THIS SHOULD DOWMLOAD HIS SONG- CURRENT SITUATION- IT IS ONE OF THE
GREATEST BLUES SONGS I EVER HEARD. AFTER YOU HEAR CAN SOMEONE PLEASE TRY TO TAB IT IVE
BEEN LOOKIN EVERYWHERE FOR IT THANKS
ROCK ON!
Tap to rate this tab
# A B C D E F G H I J K L M N O P Q R S T U V W X Y Z