Song name
# A B C D E F G H I J K L M N O P Q R S T U V W X Y Z

Joe Bonamassa - Color And Shape tab

                              JOE BONAMASSA
                             COLOR AND SHAPE


STANDARD TUNING
EADGBe

intro
------------------------------|
--0---2---4--6b7r6--0---------|
------------------------------|x2
--0---2---4--6------0---------|
------------------------------|
------------------------------|

this part comes in a little after the intro
-----------------------------------------|
-----------------------------------------|
------------13-------11------------------|x8
------11-13----11-13----13-11-9-11p9-----|
---11------------------------------------|
-----------------------------------------|

then the chorus comes


then play this again
-----------------------------------------|
-----------------------------------------|
------------13-------11------------------|
------11-13----11-13----13-11-9-11p9-----|x4
---11------------------------------------|
-----------------------------------------|


then this is played
----------------------------------------|
----------------1-----------------------|
-----2-4------2----------1-------3------|
---2--------2----------2-------4--------|
-0--------0----------2-------4----------|
-------------------0-------2------------|


this is played and repeated at the end with distortion
----------------------------|
----------------------------|
---------------4------------|
--66-66-66-66--4--4---------|
--66-66-66-66--2--4---------|
--44-44-44-44-----2---------|

thats pretty much it
joe bonamassa is a great guitarist
peace
Tap to rate this tab
# A B C D E F G H I J K L M N O P Q R S T U V W X Y Z