Song name
# A B C D E F G H I J K L M N O P Q R S T U V W X Y Z

Joe Bonamassa - Steppin Outrice Pudding tab

                             JOE BONAMASSA
                        STEPPIN OUT/RICE PUDDING

standard tuning
EADGBe


--------------------------------------------------|
--------------------------------------------------|
------3---3-5-3-5b-5-3-5-3---3--------------------|
--3/5---5------------------5---5-5--------355-----|
------------------------------------3h4h5---------|
--------------------------------------------------|

--------------------------------------------------|
--------------------------------------------------|
--------------------------------------------------|
------3---3-5-3-5b-5-3-5-3---3--------------------|
--3/5---5------------------5---5-5--------355-----|
------------------------------------3h4h5---------|

--------------------------------------------------|
--------------------------------------------------|
------3---3-5-3-5b-5-3-5-3---3--------------------|
--3/5---5------------------5---5-5--------355-----|
------------------------------------3h4h5---------|
--------------------------------------------------|

-------------------------------------------------------|
---------3--------------------------------13b-11b------|
--3-5b-----5-3---3-----3b--------12--------------------|
---------------5---5-5---------------------------------|
-------------------------------------------------------|
-------------------------------------------------------|

he pretty much solos the rest of the song
peace
Tap to rate this tab
# A B C D E F G H I J K L M N O P Q R S T U V W X Y Z