Song name
# A B C D E F G H I J K L M N O P Q R S T U V W X Y Z

Joe Bonamassa - Palm Trees Helicopters And Gasoline tab

Palm Trees, Helicopters, and Gasoline
By: Joe Bonamassa
Transcribed by: Brennan Lentz

*Tuning (VERY IMPORTANT):

from bottom to top, D A D D G D
I am confident this tuning is right. I can play the whole song in it just fine and it
great. However, take it with a grain of salt because I am only basing this off the You And
recording. I don't have any videos, any live recordings, etc. and I have never seen him 
it, so this is just my ear doing the transcribing.

*Listen for strumming patterns. I purposely didn't write every
single open string note in, but you can tell by listening that
there are always open strings ringing (for example, in this
opening passage). Just listen for the pattern and the tab will
give you the actual notes. Since the song is so percussive it
is nearly impossible to transcribe everything, but I guarantee
the accuracy of this tab. However, if there are any places you
disagree with, please email me at Vaughanabe13@aol.com so I can
revise it. Thanks and enjoy!

D-------0---0---0------5-4-2-4-2-4---22-0-0---------------|
G-------0---0---0------4-2-0-2-0-2---55-4-2-0-------------|
D-0-0---0---0---0-----------------------------------------|
D-0-0---0---0---0----------------------------3-2-0-0---0--|
A-0-0-0---0---0------0------------------------------2-3---|
D-0-0-0---0---0----0-0--0-0--------0-------0--------------|
0:00

D---5-4-2-4-2-4--x--22-0-0--------------|
G---4-2-0-2-0-2--x--55-4-2-00-----------|
D---------------------------------------|
D----------------------------3-2-0---0--|
A---------------------------------2-3---|
D--0---0--------0---------0-------------|
0:10

D-----5-4-2-4-2-4--00-22-0-0--------------|
G-----4-2-0-2-0-2--00-55-4-2-00-----------|
D-----------------------------------------|
D------------------------------3-2-0---0--|
A----0------------------------------2-3---|
D--0-0---0--------0---------0-------------|
0:14

D-----5-4-2-4-2-4--00-22-0-0----------------|
G-----4-2-0-2-0-2--00-55-4-2-00-------------|
D-------------------------------------------|
D------------------------------3-2-0--------|
A----0-------------------------------0-0-2--|
D--0-0---0--------0---------0---------------|
0:18

(listen for strumming patterns on the open notes)

D----------------------0-----------------------------|
G--0(0)-0(0)-0(0)-0(0)-0---0(0)-0(0)-----------------|
D--0(0)-0(0)-0(0)-0(0)-0---0(0)-0(0)-0---------------|
D--0(0)-0(0)-0(0)-0(0)-0---0(0)-0(0)-0--0------------|
A--333--222--333--444--55--333--222--3p0-3-2-0-0---0-|
D------------------------0----------------------4-5--|
0:23

D----------------------0-----------------------------|
G--0(0)-0(0)-0(0)-0(0)-0---0(0)-0(0)-----------------|
D--0(0)-0(0)-0(0)-0(0)-0---0(0)-0(0)-0---------------|
D--0(0)-0(0)-0(0)-0(0)-0---0(0)-0(0)-0--0------------|
A--333--222--333--444--55--333--222--3p0-3-2-0-0---0-|
D------------------------0----------------------4-5--|
0:27

D-----5-4-2-4-2-4--00-22-0-0--------------|
G-----4-2-0-2-0-2--00-55-4-2-00-----------|
D-----------------------------------------|
D------------------------------3-2-0---0--|
A----0------------------------------2-3---|
D--0-0---0--------0---------0-------------|
0:31

D-----5-4-2-4-2-4--00-22-0-0--------------|
G-----4-2-0-2-0-2--00-55-4-2-00-----------|
D-----------------------------------------|
D------------------------------3-2-0---0--|
A----0------------------------------2-3---|
D--0-0---0--------0---------0-------------|
0:35

D----3---3---3-----------------------------------|
G---2--2---2---2---0-0-00-0-0-00---0-------------|
D--0----0---0---0--4h5-55-4h5-53p0---------------|
D------------------0-0-00-0-0-00----3-2-0-0---0--|
A------------------------------------------2-3---|
D-0--------------0-------------------------------|
0:39

D----3---3---3-----------------------------------|
G---2--2---2---2---0-0-00-0-0-00---0-------------|
D--0----0---0---0--4h5-55-4h5-53p0---------------|
D------------------0-0-00-0-0-00----3-2-0-0---0--|
A------------------------------------------2-3---|
D-0--------------0-------------------------------|
0:42

D----3---3---3-----------------------------------|
G---2--2---2---2---0-0-00-0-0-00---0-------------|
D--0----0---0---0--4h5-55-4h5-53p0---------------|
D------------------0-0-00-0-0-00----3-2-0-0---0--|
A------------------------------------------2-3---|
D-0--------------0-------------------------------|
0:47

D----3---3---3-----------------------------------|
G---2--2---2---2---0-0-00-0-0-00---0-------------|
D--0----0---0---0--4h5-55-4h5-53p0---------------|
D------------------0-0-00-0-0-00----3-2-0-0---0--|
A------------------------------------------2-3---|
D-0--------------0-------------------------------|
0:51

D-----5-4-2-4-2-4--00-22-0-0--------------|
G-----4-2-0-2-0-2--00-55-4-2-00-----------|
D-----------------------------------------|
D------------------------------3-2-0---0--|
A----0------------------------------2-3---|
D--0-0---0--------0---------0-------------|
0:56

D-----5-4-2-4-2-4--00-22-0-0--------------|
G-----4-2-0-2-0-2--00-55-4-2-00-----------|
D-----------------------------------------|
D------------------------------3-2-0---0--|
A----0------------------------------2-3---|
D--0-0---0--------0---------0-------------|
1:00

Bridge: (this might be a stretch but the notes are right -
use your pinky on the 10th fret notes!)

D-----7-7--5-5--7-7--------7-7--5-5--7-7-------|
G----9----9----9----9-----9----9----9----9-----|
D--10----10---10-----10-10----10---10------10--|
D----------------------------------------------|
A----------------------------------------------|
D-0--------------------------------------------|
1:05

(now move the same shape up 3 frets)

D--------10-10--8-8--10-10----------10-10--8-8--10-10-----|
G------12-----12---12-----12------12-----12---12-----12---|
D-13-13-------13---13-------13--13-------13---13-------13-|
D---------------------------------------------------------|
A---------------------------------------------------------|
D---------------------------------------------------------|
1:08

D------12-12--10-10--12-12----------12-12--10-10--12-12------|
G----14-----14-----14-----14------14-----14-----14-----14----|
D--15-------15-----15-------15--15-------15-----15-------15--|
D-0---------------------------0------------------------------|
A------------------------------------------------------------|
D------------------------------------------------------------|
1:12

D------12-12--10-10--12-12----------12-12---12-(7)--(12)--|
G----14-----14-----14-----14------14-----14-14-(7)--(12)--|
D--15-------15-----15-------15--15-------15-15-(7)--(12)--|
D-0---------------------------0----------------(7)--(12)--|
A----------------------------------------------(7)--(12)--|
D---------------------------------------------------------|
1:16

(back to intro)

D-----5-4-2-4-2-4--00-22-0-0--------------|
G-----4-2-0-2-0-2--00-55-4-2-00-----------|
D-----------------------------------------|
D------------------------------3-2-0---0--|
A----0------------------------------2-3---|
D--0-0---0--------0---------0-------------|
1:20

D-----5-4-2-4-2-4--00-22-0-0--------------|
G-----4-2-0-2-0-2--00-55-4-2-00-----------|
D-----------------------------------------|
D------------------------------3-2-0---0--|
A----0------------------------------2-3---|
D--0-0---0--------0---------0-------------|
1:24

D-----5-4-2-4-2-4--00-22-0-0--------------|
G-----4-2-0-2-0-2--00-55-4-2-00-----------|
D-----------------------------------------|
D------------------------------3-2-0---0--|
A----0------------------------------2-3---|
D--0-0---0--------0---------0-------------|
1:29

D-----5-4-2-4-2-4--00-22-0-0----------(7)----|
G-----4-2-0-2-0-2--00-55-4-2-00-------(7)----|
D-------------------------------------(7)----|
D------------------------------3-2-0--(7)----|
A----0-----------------------------0--(7)----|
D--0-0---0--------0---------0------0--(7)----|
1:33                                 let harmonic ring

There it is!
Tap to rate this tab
 
# A B C D E F G H I J K L M N O P Q R S T U V W X Y Z