Song name
# A B C D E F G H I J K L M N O P Q R S T U V W X Y Z

Joe Bonamassa - Bridge To Better Days tab

Help us improve GuitareTab! Take a short survey!
Joe Bonamassa - Bridge To Better Days

I've done this from a live performance so it might not be accurate to the studio one.

Key of Am

Main Riff/Intro

e---------------------------3-3-3-3-3-3-3---------|
b---------------------------5-5-5-5-5-5-5---------|
g--------------------------------------------5----|
d-------------------------------------------------|
a-------------------------------------------------|
e---3-5----3-5------3-5---------------------------| 

Chorus
    F          E      G
e------------------------------|
b------------------------------|
g---2-----------1------4-------|
d---3-----------2------5-------|
a---3-----------2------5-------|
e---1--------------------------|

Solo Riff

e---------------------------------------------|
b---------------------------------------------|
g-------5-----------5----------5-----3-4-5----|
d--5-7----7----5-7----7---5-7-----7--4-5-6----|
a------------------------------------4-5-6----|
e------------------------------------2-3-4----|

Improv Solo in A pentatonic me think

im not quite sure, on the 2nd section of the verse, any suggestions would be appreciated
Related for Bridge To Better Days tab