Song name
# A B C D E F G H I J K L M N O P Q R S T U V W X Y Z

Joe Brooks - My Heart Will Wait chords

Help us improve GuitareTab! Take a short survey!
Highlighted       Show chord diagrams
Hey guys... check out my cover of Joe Brooks My Heart Will Wait

http://www.youtube.com/watch?v=S1-gPSm19FM&feature=channel_page

so here are the tabs

Verse 1:

   G     Am
---3------5----|
---3------5----|
---4------5----|
---5------7----|
---5------7----|
---3------5----|

I whisper goodbye, I swear it's not for the last time.
I know it's not easy.
This could never be easy.
Five-thousand miles with miles with traffic of you in my mind,
There'll be pain, there'll be glory.
Girl you don't need to worry;
Cause my heart will wait.

Chorus:

   G#     Bm    Em   C#
---3------7----7----8----|
---3------7----8----8----|
---4------7----9----9----|
---5------9----9----10---|
---5------9----7----10---|
---3------7----7----8----|

My heart will wait for you.
My heart will wait.
My hearts gonna wait for you always.

Verse 2:

   G     Am
---3------5----|
---3------5----|
---4------5----|
---5------7----|
---5------7----|
---3------5----|

I hear your tears, they're falling down through these eyes.
Pouring out just to reach me.
Calling out for some meaning.
With all those times we sat and dreamed of life:
Oh how the future it could be,
The flawless drawrings of beauty.
So don't give up, girl, don't give in.
Don't stop, believing in me.
This is just the beginning.

Chorus:

   G#     Bm    Em   C#
---3------7----7----8----|
---3------7----8----8----|
---4------7----9----9----|
---5------9----9----10---|
---5------9----7----10---|
---3------7----7----8----|

My heart will wait for you.
My heart will wait.
My hearts gonna wait for you always.

Yeah, yeah.

My heart will wait. Oooh.
My heart will wait for you, wait for you.
My heart will wait for you always.
Cause my heart will wait for you.
It's gonna wait for you.
It's gonna wait for you, ahh.
My heart will wait for you.
It's gonna wait for you always.
It's gonna wait for you.
It's gonna wait for you.
It's gonna wait- for you.
It's gonna wait- for you.
My heart will wait until I will be with you.

Last part [Outro] you just repeat the first verse

   G     Am
---3------5----|
---3------5----|
---4------5----|
---5------7----|
---5------7----|
---3------5----|

I whisper goodbye, I swear it's not for the last time.
I know it's not easy.
It's not meant to be easy.
Related for My Heart Will Wait chords