Song name
# A B C D E F G H I J K L M N O P Q R S T U V W X Y Z

Joe Brooks - Marching Band tab

-------------------------------------------------------------------------------
			     Marching Band - Joe Brooks
-------------------------------------------------------------------------------
Tabbed by: Jayden

Tuning: Standard

Intro
e|--------------------------------------------------------------------|
B|--------------------------------------------------------------------|
G|-9-9-9--9-9-9--9-9--9-9-9--9-9-9--9-9-------------------------------|
D|-9-9-9--9-9-9--9-9--9-9-9--9-9-9--9-9-------------------------------|
A|-7-7-7--7-7-7--7-7--7-7-7--7-7-7--7-7-------------------------------|
E|--------------------------------------------------------------------|

Verse 1 x2 (Crashin’ through a deeper ocean)
e|-------------------------------------------------------------------------------|
B|-------------------------------------------------------------------------------|
G|-9-9-9--9-9-9--9-9--9-9-9--9-9-9--9-9--4-4-4--4-4-4--4-4--4-4-4--4-4-4--4-4----|
D|-9-9-9--9-9-9--9-9--9-9-9--9-9-9--9-9--4-4-4--4-4-4--4-4--4-4-4--4-4-4--4-4----|
A|-7-7-7--7-7-7--7-7--7-7-7--7-7-7--7-7--2-2-2--2-2-2--2-2--2-2-2--2-2-2--2-2----|
E|-------------------------------------------------------------------------------|

e|-------------------------------------------------------------------------------|
B|-------------------------------------------------------------------------------|
G|-6-6-6--6-6-6--6-6--6-6-6--6-6-6--6-6--2-2-2--2-2-2--2-2--2-2-2--2-2-2--2-2----|
D|-6-6-6--6-6-6--6-6--6-6-6--6-6-6--6-6--2-2-2--2-2-2--2-2--2-2-2--2-2-2--2-2----|
A|-4-4-4--4-4-4--4-4--4-4-4--4-4-4--4-4--0-0-0--0-0-0--0-0--0-0-0--0-0-0--0-0----|
E|-------------------------------------------------------------------------------|

Chorus x2 (We’re the fire the flames they can’t put out)
e|-------------------------------------------------------------------------------|
B|-------------------------------------------------------------------------------|
G|-6-6-6--6-6-6--6-6--4-4-4--4-4-4--4-4--2-2-2--2-2-2--2-2--2-2-2--2-2-2--2-2----|
D|-6-6-6--6-6-6--6-6--4-4-4--4-4-4--4-4--2-2-2--2-2-2--2-2--2-2-2--2-2-2--2-2----|
A|-4-4-4--4-4-4--4-4--2-2-2--2-2-2--2-2--0-0-0--0-0-0--0-0--0-0-0--0-0-0--0-0----|
E|-------------------------------------------------------------------------------|

(It’s us against the world)
e|------------|
G|-9---2------|
D|-9---2------|
A|-7---0------|
E|------------|

(Try stopping us now)
e|-------------------------------------------------------------------------------|
B|-------------------------------------------------------------------------------|
G|-9-9-9--9-9-9--9-9--9-9-9--9-9-9--9-9--4-4-4--4-4-4--4-4--4-4-4--4-4-4--4-4----|
D|-9-9-9--9-9-9--9-9--9-9-9--9-9-9--9-9--4-4-4--4-4-4--4-4--4-4-4--4-4-4--4-4----|
A|-7-7-7--7-7-7--7-7--7-7-7--7-7-7--7-7--2-2-2--2-2-2--2-2--2-2-2--2-2-2--2-2----|
E|-------------------------------------------------------------------------------|

e|-------------------------------------------------------------------------------|
B|-------------------------------------------------------------------------------|
G|-6-6-6--6-6-6--6-6--6-6-6--6-6-6--6-6--2-2-2--2-2-2--2-2--2-2-2--2-2-2--2-2----|
D|-6-6-6--6-6-6--6-6--6-6-6--6-6-6--6-6--2-2-2--2-2-2--2-2--2-2-2--2-2-2--2-2----|
A|-4-4-4--4-4-4--4-4--4-4-4--4-4-4--4-4--0-0-0--0-0-0--0-0--0-0-0--0-0-0--0-0----|
E|-------------------------------------------------------------------------------|

Verse 2 (I can promise you all that life brings)
e|-------------------------------------------------------------------------------|
B|-------------------------------------------------------------------------------|
G|-9-9-9--9-9-9--9-9--9-9-9--9-9-9--9-9--4-4-4--4-4-4--4-4--4-4-4--4-4-4--4-4----|
D|-9-9-9--9-9-9--9-9--9-9-9--9-9-9--9-9--4-4-4--4-4-4--4-4--4-4-4--4-4-4--4-4----|
A|-7-7-7--7-7-7--7-7--7-7-7--7-7-7--7-7--2-2-2--2-2-2--2-2--2-2-2--2-2-2--2-2----|
E|-------------------------------------------------------------------------------|

e|-------------------------------------------------------------------------------|
B|-------------------------------------------------------------------------------|
G|-6-6-6--6-6-6--6-6--6-6-6--6-6-6--6-6--2-2-2--2-2-2--2-2--2-2-2--2-2-2--2-2----|
D|-6-6-6--6-6-6--6-6--6-6-6--6-6-6--6-6--2-2-2--2-2-2--2-2--2-2-2--2-2-2--2-2----|
A|-4-4-4--4-4-4--4-4--4-4-4--4-4-4--4-4--0-0-0--0-0-0--0-0--0-0-0--0-0-0--0-0----|
E|-------------------------------------------------------------------------------|

Chorus x2 (We’re the fire the flames they can’t put out)
e|-------------------------------------------------------------------------------|
B|-------------------------------------------------------------------------------|
G|-6-6-6--6-6-6--6-6--4-4-4--4-4-4--4-4--2-2-2--2-2-2--2-2--2-2-2--2-2-2--2-2----|
D|-6-6-6--6-6-6--6-6--4-4-4--4-4-4--4-4--2-2-2--2-2-2--2-2--2-2-2--2-2-2--2-2----|
A|-4-4-4--4-4-4--4-4--2-2-2--2-2-2--2-2--0-0-0--0-0-0--0-0--0-0-0--0-0-0--0-0----|
E|-------------------------------------------------------------------------------|

Bridge x2 (It's us a against the world)
e|-------------------------------------------------------------------------------|
B|-------------------------------------------------------------------------------|
G|-9-9-9--9-9-9--9-9--9-9-9--9-9-9--9-9--2-2-2--2-2-2--2-2--2-2-2--2-2-2--2-2----|
D|-9-9-9--9-9-9--9-9--9-9-9--9-9-9--9-9--2-2-2--2-2-2--2-2--2-2-2--2-2-2--2-2----|
A|-7-7-7--7-7-7--7-7--7-7-7--7-7-7--7-7--0-0-0--0-0-0--0-0--0-0-0--0-0-0--0-0----|
E|-------------------------------------------------------------------------------|

(Try stopping us now)
e|----------------|
B|----------------|
G|-6---4---2------|
D|-6---4---2------|
A|-4---2---0------|
E|----------------|

(oh!) x2
e|-------------------------------------------------------------------------------|
B|-------------------------------------------------------------------------------|
G|-9-9-9--9-9-9--9-9--9-9-9--9-9-9--9-9--4-4-4--4-4-4--4-4--4-4-4--4-4-4--4-4----|
D|-9-9-9--9-9-9--9-9--9-9-9--9-9-9--9-9--4-4-4--4-4-4--4-4--4-4-4--4-4-4--4-4----|
A|-7-7-7--7-7-7--7-7--7-7-7--7-7-7--7-7--2-2-2--2-2-2--2-2--2-2-2--2-2-2--2-2----|
E|-------------------------------------------------------------------------------|

e|-------------------------------------------------------------------------------|
B|-------------------------------------------------------------------------------|
G|-6-6-6--6-6-6--6-6--6-6-6--6-6-6--6-6--2-2-2--2-2-2--2-2--2-2-2--2-2-2--2-2----|
D|-6-6-6--6-6-6--6-6--6-6-6--6-6-6--6-6--2-2-2--2-2-2--2-2--2-2-2--2-2-2--2-2----|
A|-4-4-4--4-4-4--4-4--4-4-4--4-4-4--4-4--0-0-0--0-0-0--0-0--0-0-0--0-0-0--0-0----|
E|-------------------------------------------------------------------------------|


===============================================================================
Tap to rate this tab
 
# A B C D E F G H I J K L M N O P Q R S T U V W X Y Z