Song name
# A B C D E F G H I J K L M N O P Q R S T U V W X Y Z

Joe Brooks - Looking Straight At Me tab

Looking Straight At Me- Joe Brooks

I'm pretty sure this is correct. Its kinda difficult to see his hands in the video but 
it is, http://www.youtube.com/watch?v=3-r8xyV3XP4

CAPO 2
standard tuning

*note:he uses the hammering and pulloffs from the intro in other parts of the song 
If you listen to it, you'll hear it.


intro  e|---------1---------1-----------------------------------------|
       B|---------1---------1------------1---------1------------------|
       G|----0h2-------0h2---------------0---------0-------0h2--------|
       D|--0---------0----------0---0h2-------0h2--------2-----2------|
       A|-------------------------0---------0-------------------------|
       E|-------------------------------------------------------------|

       e|---------1---------1----0h1p0--------------------------------|
       B|---------1---------1----------1---1----------1---------1-----|
       G|----0h2-------0h2---------------2------------0---------0-----|
       D|--0---------0---------------------------0h2-------0h2--------|
       A|--------------------------------------0---------0------------|
       E|-------------------------------------------------------------|

verses e|---------1--1------------------------------------------------|
  &    B|---------1--1--------------------1--1------------------------|
chorus G|----0h2--------------------------0--0------------------------|
       D|--0---------0---------------0h2------------------------------|
       A|--------------------------0---------0------------------------|
       E|-------------------------------------------------------------|

Thats it. pretty simple.
:)
Tap to rate this tab
 
# A B C D E F G H I J K L M N O P Q R S T U V W X Y Z