Joe Brooks - Apple tab

Standard tuning + capo on 2nd fret.
I'm not 100% sure about the bridge.. Any suggestions? :D


INTRO:
e  ------5/3-----3/2--------------------|
b  --------------------0----------------|
G  ------------------2-----2------------|
D  --0--------0--------------0-h4/2-----|
A  -------------------------------------|
E  -------------------------------------|

e  --------x---------------x--------------x------------------|
b  --------x---------------x-----------3--x---0--------------|
G  -----7--x---7--------7--x--7--------4--x------------6-h7--|
D  -----7--x------0---0----x----0---------x------------7-----|
A  --5-----x--------4------x--------------x------------------|
E  --------x---------------x-------3------x------5--5--------|

I play the following for the second half of the tab parts so that itís easy to switch to 
the chords right after (although Joe plays the tabs in the verses..):

e  --------x---------------x--------------x------------------|
b  --------x---------------x-----------3--x---0-------2-h3---|
G  -----7--x---7--------7--x--7--------4--x------------------|
D  -----7--x------0---0----x----0---------x------------------|
A  --5-----x--------4------x--------------x------0--0--------|
E  --------x---------------x-------3------x------------------|


 D    Em    G    A
For your consideration
    D      Em            G           A
I offer myself with no sign of hesitation
       D     Em        G       A
Well let's get these wheels in motion
        D            Em           G          A
'Cause this old guitar's gonna stay by the ocean
 Em        A                  D    Em
Side, oh apple you're my life
               G                A
Feel like a before and after photo
        G                    A
How I lived without you, I don't know
                 G                  A
So we're gonna plant this seed and watch it grow oh..


CHORUS:
 D   Em        G       A
Apple, you don't even know
          D           Em       G     A
How your laughter tastes so sweet, ohhh
 D   Em        G         A
Apple, well I thank the stars
          Em       A          Em      A
That you fell so close, you fell so close
     Em      A
You fell so close to me


FOR THIS TRANSITION, PLAY THE 2ND PART OF THE INTRO TABS


 D    Em     G            A
We sit and watch as the waves slowly
 D              Em            G          A          D
Reach for our names and surrender them to the tide
   Em                  G        A          D
If I could send out a message in a bottle
     Em          G     A             Em
I'd say all I need is you by my side
             A
Apple, you're the reason why
               G                A
Feel like a before and after photo
        G                    A
How I lived without you, I don't know
                 G                  A
So we're gonna plant this seed and watch it grow oh..


REPEAT CHORUS


BRIDGE:
G  Em                Bm A Em
......So close to me-e--eeeee
G  Em  A


 D   Em        G       A
Apple, you don't even know
          D           Em       G     A
How your laughter tastes so sweet, ohhh
 D   Em        G         A
Apple, well I thank the stars
          Em       A          Em      A        Em   A
That you fell so close, you fell so close to me
 D   Em        G       A
Apple, you don't even know
          D           Em       G     A
How your laughter tastes so sweet, ohhh
 D   Em        G         A
Apple, well I thank the stars
          Em       A          Em      A
That you fell so close, you fell so close
     Em      A
You fell so close to me


OUTTRO:
e  --------x---------------x--------------x------------------|
b  --------x---------------x-----------3--x---0--------------|
G  -----7--x---7--------7--x--7--------4--x------------6-h7--|
D  -----7--x------0---0----x----0---------x------------7-----|
A  --5-----x--------4------x--------------x------------------|
E  --------x---------------x-------3------x------5--5--------|

e  --------x--------------|
b  --------x--------------|
G  -----7--x---7--------7-|
D  -----7--x------0---0---|
A  --5-----x--------4-----|
E  --------x--------------|

e  ------5/3-----3/2--------------------|
b  --------------------0----------------|
G  ------------------2-----2------------|
D  --0--------0--------------0-h4/2--0--|
A  -------------------------------------|
E  -------------------------------------|
Tap to rate this tab
 
# A B C D E F G H I J K L M N O P Q R S T U V W X Y Z