Song name
# A B C D E F G H I J K L M N O P Q R S T U V W X Y Z

Joe Cocker - Have A Little Faith In Me tab

Tabbed by: Vintage-Tweed
Email: EcksteinKl@t-online.de

Tuning: Standart

e|---------|------9-9----9~~----|-9--9~11b-|9--9-----|----------14-16-|
B|---------|----------11----11\-|--11------|-11--11\-|-16grb--16b-----|
G|---1-3~1-|-8/10---------------|----------|---------|----------------|
D|-4-------|--------------------|----------|---------|----------------|
A|---------|--------------------|----------|---------|----------------|
E|---------|--------------------|----------|---------|----------------|

e|------------16brbr14-16-|-16------------------|-----------------|
B|-16br-14----------------|----16b-14----14-----|---11------------|
G|---------15-------------|-----------13----15\-|-13--------------|
D|------------------------|---------------------|-----13-15-13-11-|
A|------------------------|---------------------|-----------------|
E|------------------------|---------------------|-----------------|

e|-----------------|---------------|------------------|---------------|
B|-----------------|---------------|------------------|----------14h16|
G|-----------------|----13---------|------------------|-----13-15-----|
D|-13/15-11h13-13b-|-13b---13pbr11-|---11-13----------|13h15----------|
A|-----------------|---------------|-13------11h13-11\|---------------|
E|-----------------|---------------|------------------|---------------|

e|-13-14br13----------------||
B|----------16p14-16-----14-||
G|------------------15p13---||
D|--------------------------||
A|--------------------------||
E|--------------------------||



| /   slide up
| \   slide down
| h   hammer-on
| p   pull-off
| ~   vibrato
| b   bend    
| br  bend and release
| pbr prebend and release
| grb gradual bend
==========================================================================
Tap to rate this tab
 
# A B C D E F G H I J K L M N O P Q R S T U V W X Y Z