Song name
# A B C D E F G H I J K L M N O P Q R S T U V W X Y Z

Joe Cocker - You Are So Beautiful tab


Intro: (play 2x)
||-----------------|------------------|
||-----0---0---0---|-0----------------|
||=----0---0---0---|-020-------0---0--|
||=--0-----4---3---|-2--------2---4---|
||-----------------|-3---3---3---5----|
||-3-------3-------|------------------|

Verse:
||-----------------|-----------------|-----------------|
||-----0---0---0---|-0---0---0----00-|-0---0-----------|
||-----0---0---0---|-0---0---0-022---|-0---0---2---2---|
||---0-----4---3---|-2---2---2-------|-1---1---1---1---|
||-----------------|-3-----3---------|-----------------|
||-3-----3---3---3-|-----------------|-1-----1-------1-|
     you are  so   beautiful                         to


-----------------|-----------------|-----------------|
-----0---0---0---|-0---0---0---0---|-0---0---0---0---|
-----0---0---0---|-0---0---0---0---|-0---0---0---0---|
---0-----4---4---|-3---3---3---3---|-2---2---2---2---|
-----------------|---------0---2---|-3-----3---------|
-3-----3---3---3-|-----3-----------|-----------------|
  me                    you are so        beautiful


-----------------|-----------------|-1---1---1---1---|
-0---0-----------|-0---0---0---0---|-1---1---0---0---|
-0---0---2---2---|-0---0---0---0---|-2---2---0---0---|
-1---1---1---1---|-0---0---0---0---|-0---0-----------|
-----------------|-----------------|-------------2---|
-1-----1-------1-|-3---3---3---3---|---------3-------|
                to me        can't u see


-0---0---0---0---|-0---0---2---2---|-3---3---3---3---|
-0---0---0---0---|-0---0---0---0---|-0---0---0---0---|
-0---0---0---0---|-2---2---2---2---|-0---0---0---0---|
-2---2---2---2---|-2---2---1---1---|-2---2---1---0---|
-3-----3-------3-|-2-----2-----2---|-----------------|
-----------------|-----------------|-----------------|
      ur ev...    Hope for                   Ev...  I


-3---3---3-------|-----------------|-----------------||-3----|
-5---5---5-------|-----0---0---0---|-0---0---0---0---||-0----|
-4---4---4-------|---0-----0---0---|-0---0---0---2--=||-0----|
-5---5---5-------|-0-------4---3---|-2---2---1---1--=||-0----|
-4---4-4---------|---------0---2---|-3---3-----------||-2----|
-----------------|-3---------------|---------1---1---||-3----|
need...                you are so   Beautiful    to     me...
Tap to rate this tab
# A B C D E F G H I J K L M N O P Q R S T U V W X Y Z