Joe Dassin - Si Tu T Appelles Melancolie tab

                        Si Tu  T' Appelles Melancolie                           


                                                                      Joe Dassin
Piste 1



     Q.     E  E  E  E  E     Q    Q    Q    Q       Q    E  E  E  E  E  E   
E||------------------------|----------------------|-------------------------|
B||------------------------|--0---------0---------|--0----------------------|
G||------------0--2--4--5--|--0---------0---------|--0----------0--2--4--5--|
D||---------0--------------|-------0---------0----|-------0--0--------0-----|
A||------------------------|-----------------2----|-------------------------|
E||------------------------|--3-------------------|--3----------------------|


  Q    E  E  Q    Q       Q    E  E  E  E  E  E     Q    E  E  Q    Q     
-----------------------|-------------------------|-----------------------|
--0-------0--0---------|--1----0-----------------|--0-------0--0---------|
--0-------0--0----2----|--2----0-----0--2--4--5--|--0-------0--0----2----|
-------0----------4----|----------0--------------|-------0----------4----|
------------------5----|-------------------------|------------------5----|
--3--------------------|--3----------------------|--3--------------------|


  Q    Q    Q    Q       Q    E  E  Q    Q       Q    E  E  E  E  E  E   
----------------------|-----------------------|-------------------------|
--1----0--------------|----------0------------|-------------------1--0--|
--2----0----2----0----|--2--------------------|-------------2--4--------|
------------4----2----|--2----------2---------|--L-------2--------2--2--|
----------------------|--3----------3---------|--L----------0-----------|
--3-------------------|--0----0-----5----0----|--3----0-----------------|


  Q    E  E  Q    Q       Q    Q    Q    E  E     Q    Q    Q    Q     
-----------------------|-----------------------|----------------------|
------------------0----|--------------------3--|----------------------|
--2-------2--2---------|--2----0---------------|--2----2----2----2----|
--2--------------------|--2---------2----------|--0-------------------|
--3----------0---------|--3----2---------0-----|--0-------------------|
--0----0----------0----|--0---------3----------|--2-------------------|


  Q    Q    Q    Q       Q    Q    Q    Q       Q    Q    Q    Q     
----------------------|----------------------|----------------------|
----------------------|----------------------|----------------------|
--3----3----3----3----|--4----L----2----0----|-------0---------0----|
--4-------------------|--5----0----4----2----|--4----0----4----5----|
--4-------------------|-------2----5---------|--2----2----5---------|
--2-------------------|--3-------------------|--3-------------------|


  W                   Q    Q    Q    Q       Q    Q    Q    Q     
-------------------|----------------------|----------------------|
-------------------|----------------------|----------------------|
--0----------------|--0----L--------------|----------------------|
-------------------|--2-------------------|--0----0---------2----|
--2----------------|--2----2----2----3----|--2--------------3----|
--3----------------|--3----L----3----5----|--3---------3---------|


  Q    Q    Q    Q       Q    Q    Q    Q       Q    Q    Q    Q     
----------------------|----------------------|----------------------|
----------------------|------------1---------|--1-------------------|
-------0----2----4----|--4---------1---------|--2-------------------|
--4----2----4----5----|--2----2--------------|--2---------0---------|
--5-------------------|--0-------------------|--0----3--------------|
--7-------------------|-----------------0----|-----------------0----|


  Q    Q    Q    Q       Q    Q    Q    Q       Q    Q    Q    Q     
----------------------|----------------------|----------------------|
--1---------0---------|----------------------|----------------------|
--2---------0----2----|--1----2----1----2----|------------0---------|
-------2---------4----|--2-------------------|--4-------------------|
--0----3--------------|--3-------------------|--3----0---------0----|
------------0---------|--5---------0---------|--2-------------------|


  Q    Q    Q    Q       Q    Q    Q    Q       Q    Q    Q    Q     
----------------------|----------------------|----------------------|
----------------------|-----------------3----|----------------------|
----------------------|------------5---------|----------------------|
--L----4----5----4----|--2----2--------------|--2----0----2----0----|
--L----3----5----5----|--3-------------------|--3---------3---------|
--L----2--------------|--3-------------------|--3---------5---------|


  Q    Q    Q    Q       Q    Q    Q    Q       Q    Q    Q    Q     
----------------------|----------------------|----------------------|
----------------------|----------------------|----------------------|
--2-------------------|--2-------------------|--4----L----2----0----|
--4---------0---------|--4----0----2----0----|--5----0----4----2----|
--3----0---------0----|--3-------------------|-------2----5---------|
----------------------|--2-------------------|--3-------------------|


  Q    Q    Q    Q       Q    Q    Q    Q       Q    Q    Q    Q     
----------------------|--3---------2---------|--0-------------------|
----------------------|-------0---------0----|-------0----3---------|
-------0---------0----|--0-------------------|--0----L--------------|
--4----0----4----5----|----------------------|--2-------------------|
--2----2----5---------|--2-------------------|--2----2----2----3----|
--3-------------------|--3-------------------|--3----L----3----5----|


  Q    Q    Q    Q       Q    Q    Q    Q       Q    Q    Q    Q     
----------------------|----------------------|--5----0----4----0----|
----------------------|----------------------|------------1---------|
----------------------|-------0----2----4----|--4---------1---------|
--0----0---------2----|--4----2----4----5----|--2----2--------------|
--2--------------3----|--5-------------------|--0-------------------|
--3---------3---------|--7-------------------|-----------------0----|


  Q    Q    Q    Q       Q    Q    Q    Q       Q    Q    Q    Q     
--3----0----2---------|----------------------|----------------------|
--1-------------------|--1---------0---------|----------------------|
--2-------------------|--2---------0----2----|--1----2----1----2----|
--2---------0---------|-------2---------4----|--2-------------------|
--0----3--------------|--0----3--------------|--3-------------------|
-----------------0----|------------0---------|--5---------0---------|


  Q    Q    Q    Q       Q    Q    Q    Q       Q    Q    Q    Q     
--5---------3---------|--2-------------------|----------------------|
----------------------|----------------------|-----------------3----|
-------2----0----2----|----------------------|------------5---------|
--4-------------------|--L----4----5----4----|--2----2--------------|
--3----0---------0----|--L----3----5----5----|--3-------------------|
--2-------------------|--L----2--------------|--3-------------------|


  Q    Q    Q    Q       Q    Q    Q    Q       Q    Q    Q    Q     
----------------------|----------------------|----------------------|
----------------------|----------------------|----------------------|
----------------------|--2-------------------|--2-------------------|
--2----0----2----0----|--4---------0---------|--4----0----2----0----|
--3---------3---------|--3----0---------0----|--3-------------------|
--3---------5---------|----------------------|--2-------------------|


  Q    Q    Q    Q       Q    Q    Q    Q       Q    Q    Q    Q     
----------------------|----------------------|--3---------2---------|
----------------------|----------------------|-------0---------0----|
--4----L----2----0----|-------0---------0----|--0-------------------|
--5----0----4----2----|--4----0----4----5----|----------------------|
-------2----5---------|--2----2----5---------|--2-------------------|
--3-------------------|--3-------------------|--3-------------------|


  Q    Q    Q    Q       Q    Q    Q    Q      
--0-------------------|----------------------||
-------0----3---------|----------------------||
--0----L--------------|----------------------||
--2-------------------|--0----0---------2----||
--2----2----2----3----|--2--------------3----||
--3----L----3----5----|--3---------3---------||




Duration Legend
---------------
W - whole
H - half
Q - quarter
E - 8th
S - 16th
T - 32nd
X - 64th
. - note dotted
|-n-|  - n-tuplets


Tablature Legend
----------------
L - tied note
x - dead note
g - grace note
(n) - ghost note
> - accentuded note
NH - natural harmonic
AH - artificial harmonic
TH - tapped harmonic
SH - semi harmonic
PH - pitch harmonic
h - hammer on
p - pull off
b - bend
br - bendRelease
pb - preBend
pbr - preBendRelease
brb - bendReleaseBend
\n/ - tremolo bar dip
\n - tremolo bar dive
-/n - tremolo bar Release up
/n\ - tremolo bar inverted dip
/n - tremolo bar return
-\n - tremolo bar Release down
S - shift slide
s - legato slide
/ -  slide into from below or out of upwards
\ -  slide into from above or out of downwards
~ - vibrato
W - wide vibrato
tr - trill
TP - tremolo picking
T - tapping
S - slap
P - pop
< - fade in
^ - brush up
v - brush down
Tap to rate this tab
 
# A B C D E F G H I J K L M N O P Q R S T U V W X Y Z