Song name
# A B C D E F G H I J K L M N O P Q R S T U V W X Y Z

Joe Driscoll - Just Us tab

-------------------------------------------------------------------------------
			     Joe Driscoll - Just Us
-------------------------------------------------------------------------------
Tabbed by:jd
Email:jaedee@hotmail.co.uk

Tuning:Standard

I only know this bit at the moment -

e|--------------------------------------------------------|
B|--------------------------------------------------------|
G|--------------------------------------------------------|
D|--------------------------------------------------------|
A|-----------------5---------------------5----------------|
E|---3---3--3---/6---------3--3---3---/6------------------|


e|--------------------------------------------------------|
B|--------------------------------------------------------|
G|--------------------------------------------------------|
D|-----------------5---------------------5----------------|
A|---3---3--3---/6---------3--3---3---/6------------------|
E|--------------------------------------------------------|

************************************

| /   slide up
| \   slide down
| h   hammer-on
| p   pull-off
| ~   vibrato
| +   harmonic
| x   Mute note
| b   Bend
| pb  Pre-bend
| br  Bend release
| pbr Pre-bend release
| brb Bend release bend

************************************
Tap to rate this tab
# A B C D E F G H I J K L M N O P Q R S T U V W X Y Z