Song name
# A B C D E F G H I J K L M N O P Q R S T U V W X Y Z

Joe Driscoll - Origin Myth Live tab

-------------------------------------------------------------------------------
			     Origin Myth - Joe Driscoll
-------------------------------------------------------------------------------
Tabbed by:jd
Email:jaedee@hotmail.co.uk

Tuning: EADGBE

There is only 1 tab for this artist, and he believe he is an amazing guy so heres 
his song Origin Myth - From the album Origin Myths

Intro/1st Verse
e|-------------------------------------------------------------------------|
B|----10-------------------------------------------10----------------------|
G|----------------------------6---------------------------------6----------|
D|-----7----------------------7--------------------7------------7----------|
A|-------------------------------------------------------------------------|
E|-------------------------------------------------------------------------|

e|-------------7----------------------------------------------------------|
B|---10------------------10-----------------------------------------------|
G|---------------------------------7---6--------------7----9--------------|
D|---------------------------------------------7--------------------------|
A|------------------------------------------------------------------------|
E|------------------------------------------------------------------------|

e|--------------------------------------------------------------------------|
B|--------------------------------------------------------------------------|
G|--------------------------------------------------------------------------|
D|--------------------------------------------------------------------------|
A|--------------------/12---------------------7------5-----4----------------|
E|---0------0------------------5------5-------------------------------------|

Solo bit (this isnt right but sounds similar)

e|----------------------------------------------------------------------|
B|--10--10--10--12---10---------------------------8--------8------------|
G|-----------------------------6-------------7h9------7h9---------------|
D|--7---7---7---9-----7--------7----------------------------------------|
A|----------------------------------------------------------------------|
E|----------------------------------------------------------------------|

e|----------------------------------------------------------------------|
B|--10--10--10--12---10-------/14-----12---12---12----------------------|
G|----------------------------/14-----14---14---14\---9-----------------|
D|--7---7---7---9-----7-------------------------------------------------|
A|----------------------------------------------------------------------|
E|----------------------------------------------------------------------|



Thats all i got so far, hope it helps

************************************

| /   slide up
| \   slide down
| h   hammer-on
| p   pull-off
| ~   vibrato
| +   harmonic
| x   Mute note
| b   Bend
| pb  Pre-bend
| br  Bend release
| pbr Pre-bend release
| brb Bend release bend

************************************
Tap to rate this tab
# A B C D E F G H I J K L M N O P Q R S T U V W X Y Z