Guitaretab - guitar tabs
Song name
# A B C D E F G H I J K L M N O P Q R S T U V W X Y Z

Joe Esposito - Youre The Best tab

You're The Best - Joe Esposito
(Theme from the Karate Kid)

This one isn't just chords, it's the whole song unlike all the other tabs of this you'll find.
This is how I think the song goes. There are probably a few vague bits, but I'm pretty 
they're right.
Please use this and correct if necessary.

Intro
+ = hit whammy bar                     ⌐       Bar of 3/4       
     e|--------------------------------|------------------------|
     b|--------------------------------|------------------------|
     g|--------------------------------|------------------------|
     d|14------------------------------|------------------------|
     a|14------------------------------|------------------------|
     e|12------------------------------|------------------------|

WHAMMY|----+---+---+---+---+---+---+---|+---+---+---+---(DIVE)--|


Verse 1
     e|--------------------------------|--------------------------------|
     b|--------------------------------|--------------------------------|
     g|--------9-----------------------|--------9--------------12-------|
     d|--------9-----------------------|--------7--------------12-------|
     a|------------------------7-------|--------------------------------|
     e|--------------------------------|--------------------------------|


     e|--------------------------------|--------------------------------|
     b|--------------------------------|--------------------------------|
     g|------------------------9-------|-------14--------------16-------|
     d|------------------------9-------|-------14--------------14-------|
     a|--------------------------------|0-------------------------------|
     e|--------------------------------|----------------0---------------|


     e|--------------------------------|--------------------------------|
     b|--------------------------------|--------------------------------|
     g|9---------------9---------------|5---------------4---------------|
     d|9---------------9---------------|5---------------4-------2-------|
     a|--------------------------------|------------------------2-------|
     e|--------------------------------|--------------------------------|


     e|--------------------------------|--------------------------------|
     b|--------------------------------|--------------------------------|
     g|2---------------7---------------|5---------------4---------------|
     d|2---------------7---------------|5---------------4---------------|
     a|--------------------------------|--------------------------------|
     e|--------------------------------|--------------------------------|


Chorus
x = strum with hand silencing strings
S = slide down fretboard starting anywhere
     e|--------------------------------|--------------------------------|
     b|--------------------------------|--------------------------------|
     g|--------------------------------|--------------------------------|
     d|--------------------------------|--------------------------------|
     a|--------------------------------|--------------------------------|
     e|5---------------10--------------|15------10------12------7-------|


     e|--------------------------------|--------------------------------|
     b|--------------------------------|--------------------------------|
     g|--------------------------------|--------------------------------|
     d|--------------------------------|--------------------------------|
     a|--------------------------------|--------------------------------|
     e|5---------------10--------------|15------10------12------7-------|

     e|--------------------------------|----------------x---x---x---x---|
     b|--------------------------------|----------------x---x---x---x---|
     g|--------------------------------|----------------x---x---x---x---|
     d|--------------------------------|----------------x---x---x---x---|
     a|--------------------------------|----------------x---x---x---x---|
     e|5---------------10--------------|15------10------x---x---x---x---|

     e|x---x---x---x---x---x---x---x---|x---x---x---x---x---x-----------|
     b|x---x---x---x---x---x---x---x---|x---x---x---x---x---x-----------|
     g|x---x---x---x---x---x---x---x---|x---x---x---x---x---x-----------|
     d|x---x---x---x---x---x---x---x---|x---x---x---x---x---x-----------|
     a|x---x---x---x---x---x---x---x---|x---x---x---x---x---x-----------|
     e|x---x---x---x---x---x---x---x---|x---x---x---x---x---x---S-------|

Verse 2
     e|--------------------------------|--------------------------------|
     b|--------------------------------|--------------------------------|
     g|--------9-----------------------|--------9--------------12-------|
     d|--------9-----------------------|--------7--------------12-------|
     a|------------------------7-------|0-------------------------------|
     e|--------------------------------|----------------0---------------|


     e|--------------------------------|--------------------------------|
     b|--------------------------------|--------------------------------|
     g|------------------------9-------|-------14--------------12-------|
     d|------------------------9-------|-------14--------------12-------|
     a|--------------------------------|0-------------------------------|
     e|--------------------------------|----------------0---------------|


     e|--------------------------------|--------------------------------|
     b|--------------------------------|--------------------------------|
     g|9---------------9---------------|5---------------4---------------|
     d|9---------------9---------------|5---------------4-------2-------|
     a|--------------------------------|------------------------2-------|
     e|--------------------------------|--------------------------------|


     e|--------------------------------|--------------------------------|
     b|--------------------------------|--------------------------------|
     g|2---------------7---------------|5---------------4---------------|
     d|2---------------7---------------|5---------------4---------------|
     a|--------------------------------|--------------------------------|
     e|--------------------------------|--------------------------------|

Chorus
x = strum with hand silencing strings
S = slide down fretboard starting anywhere
     e|--------------------------------|--------------------------------|
     b|--------------------------------|--------------------------------|
     g|--------------------------------|--------------------------------|
     d|--------------------------------|--------------------------------|
     a|--------------------------------|--------------------------------|
     e|5---------------10--------------|15------10------12------7-------|


     e|--------------------------------|--------------------------------|
     b|--------------------------------|--------------------------------|
     g|--------------------------------|--------------------------------|
     d|--------------------------------|--------------------------------|
     a|--------------------------------|--------------------------------|
     e|5---------------10--------------|15------10------12------7-------|
[ Tab from: http://www.guitaretab.com/j/joe-esposito/180096.html ]
     e|--------------------------------|----------------x---x---x---x---|
     b|--------------------------------|----------------x---x---x---x---|
     g|--------------------------------|----------------x---x---x---x---|
     d|--------------------------------|----------------x---x---x---x---|
     a|--------------------------------|----------------x---x---x---x---|
     e|5---------------10--------------|15------10------x---x---x---x---|

     e|x---x---x---x---x---x---x---x---|x---x---x---x---x---x-----------|
     b|x---x---x---x---x---x---x---x---|x---x---x---x---x---x-----------|
     g|x---x---x---x---x---x---x---x---|x---x---x---x---x---x-----------|
     d|x---x---x---x---x---x---x---x---|x---x---x---x---x---x-----------|
     a|x---x---x---x---x---x---x---x---|x---x---x---x---x---x-----------|
     e|x---x---x---x---x---x---x---x---|x---x---x---x---x---x---S-------|

Solo
* = bend up one semitone

     e|12----------10------------------|--------------------------------|
     b|-------------11*----------------|1211--11------------------------|
     g|--------------------------------|----12--12119---9---------------|
     d|--------------------------------|--------------12----------------|
     a|--------------------------------|--------------------------------|
     e|--------------------------------|--------------------------------|


     e|--------------------------------|--------0-2-3-5-7---------------|
     b|--------------------------------|--0-2-3-------------------------|
     g|8*----------4--2-0------------0-|2-------------------------------|
     d|-------------------2--------4---|--------------------------------|
     a|--------------------------------|--------------------------------|
     e|--------------------------------|--------------------------------|


     e|--10--12----12--10--1012151210--|11*-1512--10--------------------|
     b|12--12--------12--12----------12|------------12--11*-------------|
     g|--------------------------------|--------------------------------|
     d|--------------------------------|--------------------------------|
     a|--------------------------------|--------------------------------|
     e|--------------------------------|--------------------------------|


     e|----15--1715--18*-1519--19191715|1412--10------------------------|
     b|17----17------------------------|--------1211*-10----------------|
     g|--------------------------------|--------------------------------|
     d|--------------------------------|--------------------------------|
     a|--------------------------------|--------------------------------|
     e|--------------------------------|--------------------------------|


Chorus
x = strum with hand silencing strings
S = slide down fretboard starting anywhere
     e|--------------------------------|--------------------------------|
     b|--------------------------------|--------------------------------|
     g|--------------------------------|--------------------------------|
     d|--------------------------------|--------------------------------|
     a|--------------------------------|--------------------------------|
     e|5---------------10--------------|15------10------12------7-------|


     e|--------------------------------|--------------------------------|
     b|--------------------------------|--------------------------------|
     g|--------------------------------|--------------------------------|
     d|--------------------------------|--------------------------------|
     a|--------------------------------|--------------------------------|
     e|5---------------10--------------|15------10------12------7-------|

     e|--------------------------------|----------------x---x---x---x---|
     b|--------------------------------|----------------x---x---x---x---|
     g|--------------------------------|----------------x---x---x---x---|
     d|--------------------------------|----------------x---x---x---x---|
     a|--------------------------------|----------------x---x---x---x---|
     e|5---------------10--------------|15------10------x---x---x---x---|

     e|x---x---x---x---x---x---x---x---|x---x---x---x---x---x-----------|
     b|x---x---x---x---x---x---x---x---|x---x---x---x---x---x-----------|
     g|x---x---x---x---x---x---x---x---|x---x---x---x---x---x-----------|
     d|x---x---x---x---x---x---x---x---|x---x---x---x---x---x-----------|
     a|x---x---x---x---x---x---x---x---|x---x---x---x---x---x-----------|
     e|x---x---x---x---x---x---x---x---|x---x---x---x---x---x---S-------|

Bridge
     e|--------------------------------|--------------------------------|
     b|--------------------------------|--------------------------------|
     g|--------------------------------|--------------------------------|
     d|--------------------------------|--------------------------------|
     a|--------------------------------|--------------------------------|
     e|3-------------------------------|5-------5-------10------10------|

     e|--------------------------------|--------------------------------|
     b|--------------------------------|--------------------------------|
     g|--------------------------------|--------------------------------|
     d|--------------------------------|--------------------------------|
     a|--------------------------------|--------------------------------|
     e|7-------7-------12------12------|8-------8-------10------10------|

     e|--------------------------------|--------------------------------|
     b|--------------------------------|--------------------------------|
     g|--------------------------------|--------------------------------|
     d|--------------------------------|--------------------------------|
     a|--------------------------------|--------------------------------|
     e|10------10------10------10------|8-------7-------5-------7-------|

     e|--------------------------------|
     b|--------------------------------|
     g|--------------------------------|
     d|--------------------------------|
     a|--------------------------------|
     e|5-------10------10------10------|

Last Chorus

     e|--------------------------------|--------------------------------|
     b|--------------------------------|--------------------------------|
     g|--------------------------------|--------------------------------|
     d|--------------------------------|--------------------------------|
     a|--------------------------------|--------------------------------|
     e|5---------------10--------------|15------10------12------7-------|


     e|--------------------------------|--------------------------------|
     b|--------------------------------|--------------------------------|
     g|--------------------------------|--------------------------------|
     d|--------------------------------|--------------------------------|
     a|--------------------------------|--------------------------------|
     e|5---------------10--------------|15------10------12------7-------|
_____________
|            e|--------------------------------|--------------------------------|
|            b|--------------------------------|--------------------------------|
|            g|--------------------------------|--------------------------------|
|            d|--------------------------------|--------------------------------|
|            a|--------------------------------|--------------------------------|
|            e|8---------------10--------------|15------10------12------7-------|
|These 4 bars
|to fade
|            e|--------------------------------|--------------------------------|
|            b|--------------------------------|--------------------------------|
|            g|--------------------------------|--------------------------------|
|            d|--------------------------------|--------------------------------|
|            a|--------------------------------|--------------------------------|
_____________e|8---------------10--------------|15------10------12------7-------|
Related for Youre The Best tab