Song name
# A B C D E F G H I J K L M N O P Q R S T U V W X Y Z

Joe Esposito - Youre The Best tab

----------------------------------------------------------------------------|
-15b17--15-----15-12--------------------------------------------------------|
----------14b--------14-12-11-12-11-----------------------------------------|
------------------------------------14-12-14------12b14-12p9----------------|
-------------------------------------------------------------12p10----------|
--------------------------------------------------------------------12------|


----------------------------------------------------------------------------|
-------------------------------------12h15p12-15b17-15p12----12h15p12-15b17-|
--------------------------11-12/16------------------------14----------------|
----------------11-12-14----------------------------------------------------|
-------10-12-14-------------------------------------------------------------|
-12-14----------------------------------------------------------------------|


-15-12--------15-12-------------------------------12----15-12-17-15-17b19---|
-------15-15b-------15-14b16-14b16-14b16----12-15----15---------------------|
----------------------------------------------------------------------------|
----------------------------------------------------------------------------|
----------------------------------------------------------------------------|
----------------------------------------------------------------------------|


-17p15-17b19--17-15-14------------------------------------------------------|
-----------------------15-12------------------------------------------------|
-----------------------------14-12-14b16-14/--------------------------------|
----------------------------------------------------------------------------|
----------------------------------------------------------------------------|
----------------------------------------------------------------------------|
Tap to rate this tab
 
# A B C D E F G H I J K L M N O P Q R S T U V W X Y Z